Oops, an error
Loading. Please wait.

The Circle Tab

5,559 views 1 this week
3 commentsread comments
1 2 3 4 5
not so good
x 2
add to favorites launch autoscroll
font size
0
reset
Autoscroll
+/-
esc
set tempo
stop
Contributor
Difficulty
intermediate
WARNING: You are trying to view
                                    content from Ultimate-Guitar.com
                                    in an unauthorized application,
                                    which is prohibited.

                                    Please use an official Ultimate
                                    Guitar Tabs application for iPhone,
                                    iPad or Android to access legitimate
                                    chords, guitar, bass, and drum tabs
                                    from Ultimate-Guitar.com database.

                                    Type "ultimate guitar tabs" in Apple
                                    App Store's or Android Market's
                                    search to find the application.
The Circle/Bon Jovi

All Album!!!

-------------------------------------------------------------------------------
			     We Werent Born to Follow - Bon Jovi
-------------------------------------------------------------------------------
Tabbed by:pelanmar
Email:pelanmar@yahoo.com

Tuning:Standard

Intro:

e|-----------------------------7---------------------------------------------|
B|-----------------------------5-5-5-7-5-4-4-4-5-4---------------------------|
G|----1-------4--------------------------4-4-------6-6-4-6-6-6-6-4-6---------|
D|----2-------4-------4----------------------------4-4-4-4-4-4-4-4-4---------|
A|----2-x8----2--x8---4--x16-------------------------------------------------|
E|--------------------2------------------------------------------------------|

Verse

e|---------------------------------------------------------------------------|
B|---------------------------------------------------------------------------|
G|-----5----------------6----------------------------------------------------|
D|-----5--------6-------6-----4----------------------------------------------|
A|-----3--------6-------4-----4----------------------------------------------|
E|--------------4-------------2----------------------------------------------|

Bridge:

e|---------------------------------------------------------------------------|
B|---------------------------------------------------------------------------|
G|----1-----4----------------------------------------------------------------|
D|----2-----4----------------------------------------------------------------|
A|----2-----2----------------------------------------------------------------|
E|---------------------------------------------------------------------------|
 Chorus:                                        Let me hear you say...
e|---------------------------------------------------------------------------|
B|---------------------------------------------------------------------------|
G|-----------1-----------2-------------------------1---4---------------------|
D|-----6-----2-----4-----2-------------------------2---4---4-----------------|
A|-----6-----2-----4-----4-----repeat till this----2---2---4-----------------|
E|-----4-----------2---------------------------------------2-----------------|

verse
bridge
Chorus

Solo:
E|-------7-----------------------7------------------------7------------------------7--------------|
B-7(h)9-----7(h)9(p)7-----7(h)9-----7(h)9(p)7------7(h)9-----7(h)9(p)7------7(h)9-----7(h)9(p)7---|
G|---------------------8-----------------------8------------------------8------------------------8|
D|------------------------------------------------------------------------------------------------|
A|------------------------------------------------------------------------------------------------|
E|------------------------------------------------------------------------------------------------|

E|--------7--9(b)11(r)9(p)7--9~~---------------------------------------------|
B|--7--9-----------------------------x-x-x--14(pb)17*---14(b)16(r)14--12~~---|
G|-----------------------------------x-x-x-----------------------------------|
D|-----------------------------------x-x-x-----------------------------------|
A|-----------------------------------x-x-x-----------------------------------|
E|---------------------------------------------------------------------------|

E|-----------------------------------------------------------------------------|
B|-/12--12--12\11--11--11--11\9--9--9--9\7--7--7--7\5--5--5--5\4--4--4--4\2--2-|
G|-----------------------------------------------------------------------------|
D|-----------------------------------------------------------------------------|
A|-----------------------------------------------------------------------------|
E|-----------------------------------------------------------------------------|

E|-------------------------------------------------------|
B|-2--2(h)4(p)2(p)0--2~~---------------------------------|
G|---------------------------3(b)4(r)3-------------------|
D|-------------------------------------4-----------------|
A|---------------------------------------4*\whammy dive--|
E|-------------------------------------------------------|


************************************

| /   slide up
| \   slide down
| h   hammer-on
| p   pull-off
| ~   vibrato
| +   harmonic
| x   Mute note
| b   Bend
| pb  Pre-bend
| br  Bend release
| pbr Pre-bend release
| brb Bend release bend
| ph  Pinch Harmonic

************************************
-------------------------------------------------------------------------------
			     When We Were Beautiful - Bon Jovi
-------------------------------------------------------------------------------
Tabbed by:pelanmar
Email: pelanmar@yahoo.com

Tuning:Standard

Great song and i believe im the first to tab it all...enjoy


Intro and Verse

e|----------7---------7----------7-------------------------------------------|
B|--------------10-------10------------10------keep doing that---------------|
G|---------------------------------------------------------------------------|
D|---------------------------------------------------------------------------|
A|----0----------------------------------------------------------------------|
E|---------------------------------------------------------------------------|

1st chorus keep playing this kind of chord till the next verse (if you want
you can also play it in the verse)

e|---------------------------------------------------------------------------|
B|----10---10--10--10--------------------------------------------------------|
G|----7----7----7---7------------do that till the verse----------------------|
D|---------------------------------------------------------------------------|
A|---------------------------------------------------------------------------|
E|---------------------------------------------------------------------------|

Real Chorus

         A      G      D     A
e|---------------------------------------------------------------------------|
B|---------------------------------------------------------------------------|
G|---------------------7-----------------------------------------------------|
D|-------7------5------7-----7-----------------------------------------------|
A|-------7------5------5-----7-----------------------------------------------|
E|-------5------3------------5-----------------------------------------------|

Sha La La...
           A     D     A     D
e|---------------------------------------------------------------------------|
B|---------------------------------------------------------------------------|
G|---------------7-----------7-----------------------------------------------|
D|---------7-----7-----7-----7-----------------------------------------------|
A|---------7-----5-----7-----5-----------------------------------------------|
E|---------5-----------5-----------------------------------------------------|

Solo:

e|------------------------9---9---9------------------------------------------|
B|-------------------------------------9------5---7---7br---5----------------|
G|----4b----2----------9---9---9-------7------------------------7----7p5--2--|
D|---------------------------------------------------------------------------|
A|---------------------------------------------------------------------------|
E|---------------------------------------------------------------------------|

e|-----9---10---9-------------9---10---9------------9---10---9---------------|
B|------------------10---------------------10--------------------10----------|
G|-----------------------12---------------------11--------------------9------|
D|---------------------------------------------------------------------------|
A|---------------------------------------------------------------------------|
E|---------------------------------------------------------------------------|

e|---------------------------------------------17----------------------------|
B|--------------------------15----17----17b----------17----------------------|
G|-----6/7-------------------------------------------------------------------|
D|---------------------------------------------------------------------------|
A|---------------------------------------------------------------------------|
E|---------------------------------------------------------------------------|

e|---------------------------------------------------------------------------|
B|-------17----15---15-------------------------------------------------------|
G|-----------------------15--------------------------------------------------|
D|----------------------------15---------------------------------------------|
A|---------------------------------------------------------------------------|
E|---------------------------------------------------------------------------|


************************************

| /   slide up
| \   slide down
| h   hammer-on
| p   pull-off
| ~   vibrato
| +   harmonic
| x   Mute note
| b   Bend
| pb  Pre-bend
| br  Bend release
| pbr Pre-bend release
| brb Bend release bend

************************************
Bon Jovi: The Circle Work For the Working Man
 i didnt get this one, it is already in ultimate guitar but y had to put it here


Intro:
                                               22x I think
e |-------------------------------------------|
B |-------------------------------------------|
G |-------------------------------------------|
D |-------------------------------------------|
A |-----7-7-5-7-------5-----------------------|
E |--0----------5-7---------------------------|


After 22x do this:

    C                     A
e-----------         ------------|
B-----------         ------------|
G---5-------         ------------|   STOP
D---5-------         -----7------|
A---3-------         -----7------|
E-----------         -----5------|


Chorus:

 Em     C     G     D    3x

Intro:

e |-------------------------------------------|
B |-------------------------------------------|
G |-------------------------------------------|
D |-------------------------------------------|
A |-----7-7-5-7-------5-----------------------|
E |--0----------5-7---------------------------|

    C                     A
e-----------         ------------|
B-----------         ------------|
G---5-------         ------------|   STOP
D---5-------         -----7------|
A---3-------         -----7------|
E-----------         -----5------|

Chorus:


Em     C     G     D    3x


Bridge:

 D    Am7    D    Am7   Em   C    Am     D (hold D)

Chorus:

Em (strum once)  C (strum once)  G    D

Em    C    G    D
Em    C    G    D
Em    C    G    D
Em    C    G    D


Superman Tonight - Bon Jovi


e|--3-----repeat---------------0---------repeat------------------------------|
B|---------------------------------------------------------------------------|
G|---------------------------------------------------------------------------|
D|---------------------------------------------------------------------------|
A|---------------------------------------------------------------------------|
E|---------------------------------------------------------------------------|

(Riff)
There's something about you
I wanna rescue
I don't even know you
So what does that mean

G
Maybe I'm cynical
C9
Painfully logical
Em7
You're tragic and beautiful
G
And that's good enough for me

C9
You're looking for a hero
Em7
But it's just my old tattoo
D
Tonight I swear I’d sell my soul
C9
To be a hero for you

G           D                C9
Who's gonna save you when the stars fall from your sky?
G           D                C9
Who's gonna pull you in when the tide gets too high?
G           Bm               C9
Who's gonna hold you when you turn out the lights?
Em7
I won't lie
            C/G             G                 C9  G
I wish that I could be your Superman tonight.

G
If somebody sent you
C9
An angel to save you
Em7                                  C9
What would you tell him to turn him away?

G
That you're heart don't break?
C9
That you're lips don't kiss?
Em7
That life is just a lie?
D
That heaven don't exist?


G           D                C9
Who's gonna save you when the stars fall from your sky?
G           D                C9
Who's gonna pull you in when the tide gets too high?
G           Bm               C9
Who's gonna hold you when you turn out the lights?
      Em7
I won't lie
            C/G                      G                 C9  G
I wish that I could be your Superman tonight.


SOLO (G D C9 -- x3) Em7


Em7                  C/G
Who's gonna fix you, next time you break down?
Em7
Stranded alone by the side of the road
                C/G
With your baggage that's dragging you down.
         Em7            C/G
Don't look back, let it go
C9
Oh, oh...


G           D                C9
Who's gonna save you when the stars fall from your sky?
G           D                C9
Who's gonna pull you in when the tide gets too high?
G           Bm               C9
Who's gonna hold you when you turn out the lights?
      Em7
I won't lie
           C/G
I wish that I was that Superman...

G           D                C9
Who's gonna save you when the stars fall from your sky?
G           D                C9
Who's gonna pull you in when the tide gets too high?
G           Bm               C9
Who's gonna hold you when you turn out the lights?
      Em7
I won't lie
            C/G                      G                 C9  G
I wish that I could be your Superman tonight.


G D C9
(woah, woah, woah)
Superman tonight.
(woah, woah, woah)
You're Superman...
(woah woah, woah)
tonight.
(woah woah...)


Solo:

Tabbed by: Chinmaya
Email: chinmaya@clickass.in
Tuning: Standard

Glass Bottle Slide used
My first tab , please rate ^^
Might have misplaced the bars though the tabs are right :P

E|--------------|--------------------|
B|--------------|--------------------|
G|7/16(~)--16h17|\14-14\12-11--12(~)-|
D|--------------|--------------------|
A|--------------|--------------------|
E|--------------|--------------------|

E|--------------|---------------------|
B|--------------|---------------------|
G|7/16(~)--16h17|\14-14\12-11-12\9(~)-|
D|--------------|---------------------|
A|--------------|---------------------|
E|--------------|---------------------|

E|--------------|--------------------|
B|--------------|--------------------|
G|7-7/11-11-12\7|4-4\9(~)-7/9(~)-----|
D|--------------|--------------------|
A|--------------|--------------------|
E|--------------|--------------------|

************************************

| /   slide up
| \   slide down
| h   hammer-on
| p   pull-off
| ~   vibrato
| +   harmonic
| x   Mute note
| b   Bend
************************************
-------------------------------------------------------------------------------
			     Bullet - Bon Jovi
-------------------------------------------------------------------------------
Tabbed by:pelanmar
Email:pelanmar@yahoo.com

Tuning:Standard

This great song hasn´t been tabd yet...its with high distortion and in the solo
there is the use of a wah wah pedal...VERY IMPORTANT!!! THIS IS MY VERSION OF THE
SOLO!!! NOT SAYING IT IS THE OFFICIAL!!! BUT I BELIEVE ITS THE ONLY ONE SO FAR
AND I LIKE HOW IT SOUNDS!!!

Intro:
 *REPEAT THIS 3 TIMES AND IN THE 4TH JUST STRUM THE CHORD*
e|---------------------------------------------------------------------------|
B|---------------------------------------------------------------------------|
G|--------6---6----6X--6X----------------------------------------------------|
D|--------6---6----6X--6X----------------------------------------------------|
A|--------4---4----4X--4X----------------------------------------------------|
E|---------------------------------------------------------------------------|

vERSE:

e|---------------------------------------------------------------------------|
B|---------------------------------------------------------------------------|
G|------6----9----4----------------------------------------------------------|
D|------6----9----4----4-----------------------------------------------------|
A|------4----7----2----4-----------------------------------------------------|
E|---------------------2-----------------------------------------------------|

BRIDGE:

e|---------------------------------------------------------------------------|
B|---------------------------------------------------------------------------|
G|------6----4---------------------------------------------------------------|
D|------6----4---4----7------------------------------------------------------|
A|------4----2---4----7------------------------------------------------------|
E|---------------2----5------------------------------------------------------|

FOR CHORUS PLAY: 1 VERSE, 1 BRIDGE, 1 VERSE, 1 BRIDGE

SOLO: TURN WAH UN!
e|---------------------------------------------------------------------------|
B|---------------------------------------------------------------------------|
G|---------------------------------------------------------------------------|
D|-------------------------------------2---2---------------------------------|
A|-----2---4---2---4---2--4----2---4-----------2--4--2--4--2--4-2-4----------|
E|-------------------------------------------------------------------4--4----|

e|---------------------------------------------------------------------------|
B|---------------------------------------------------------------------------|
G|---------------------------------------------------------------------------|
D|-----------------------------------------------------------2---4-----------|
A|--------2X------4X--------2X------4X--------2X---------4-------------------|
E|----0X------0X--------0X------0X-------0X--------0X------------------------|

NOT SHURE ABOUT THIS PART
e|---------------------------------------------------------------------------|
B|---------------------------------------------------------------------------|
G|---------------------------------------------------------------------------|
D|----------9--11--11b-------9--11--11b------9--11--11b------9--11--11b------|
A|----9h11--------------9h11------------9h11------------9h11-----------------|
E|---------------------------------------------------------------------------|

e|---------------------------------------------------------------------------|
B|-----12p9------12p9----12p9-12p9-----12p9----12p9-12p9-------12p9----------|
G|-----------11-------11------------11------11------------11---------11------|
D|---------------------------------------------------------------------------|
A|---------------------------------------------------------------------------|
E|---------------------------------------------------------------------------|

e|---------------------------------------------------------------------------|
B|-----12p9-----12b----------------------------------------------------------|
G|---------------------------------------------------------------------------|
D|---------------------------------------------------------------------------|
A|---------------------------------------------------------------------------|
E|---------------------------------------------------------------------------|

Enjoy.!!
************************************

| /   slide up
| \   slide down
| h   hammer-on
| p   pull-off
| ~   vibrato
| +   harmonic
| x   Mute note
| b   Bend
| pb  Pre-bend


-------------------------------------------------------------------------------
			     Thorn in My side - Bon Jovi
-------------------------------------------------------------------------------
Tabbed by:pelanmar
Email:pelanmar@yahoo.com

Tuning:Strandard

Great song...i got it by ear i think im the first to tab it all included the solo
if you like it feel free to check out my when we were beautiful and fast cars tabs..

Intro and Verses

e|---------------------------------------------------------------------------|
B|---------------------------------------------------------------------------|
G|------0-----0------0---------0-----0------0-------0-----0------0-----------|
D|---------4-----4----------------4-----4---------------4-----4--------------|
A|-------------------------2-------------------------------------------------|
E|---0------------------------------------------3----------------------------|

e|---------------------------------------------------------------------------|
B|---------------------------------------------------------------------------|
G|--------0-----0------------------------------------------------------------|
D|------------4-----4/7\4----------------------------------------------------|
A|----5----------------------------------------------------------------------|
E|---------------------------------------------------------------------------|

Chorus

e|---------------------------------------------------------------------------|
B|---------------------------------------------------------------------------|
G|------5----------3---------------------------------------------------------|
D|------5----5-----3---------------------------------------------------------|
A|------3----5-----5---------------------------------------------------------|
E|-----------3---------------------------------------------------------------|

Chorus 2:

Thorn in mi side...Thorn in mi side...Thorn in my side...Richie plays this...
e|---------------------------------------------------------------------------|
B|---------8--7--5--3--1-----------------------------------------------------|
G|------------------------0---2---------------------4----2-------------------|
D|---------------------------------------------------------------------------|
A|---------------------------------------------------------------------------|
E|---------------------------------------------------------------------------|

Solo:

e|---------------------------------------------------------------------------|
B|---------------------------------------------------------------------------|
G|---------------------------------------------------------------------------|
D|---------------------------------------5--7--7brp5-----5-------------------|
A|---------7--5--7-----7-----7--5--7------------------7----------------------|
E|---------------------------------------------------------------------------|

e|---------------------------------------------------------------------------|
B|-----------------------------------10--10-----8---10b--10--8---------------|
G|----------7--7-------7--7----9/11-----------------------------9------------|
D|-----7/9----------7--------------------------------------------------------|
A|---------------------------------------------------------------------------|
E|---------------------------------------------------------------------------|

e|---------------------------------------------------------------------------|
B|------8--------------------------------------------------------------------|
G|----------9p7------7---9-9p7-------7---9--9p7------7-----------------------|
D|---------------9---------------9----------------9------9---7---5-----------|
A|---------------------------------------------------------------------------|
E|---------------------------------------------------------------------------|

e|---------------------------------------------------------------------------|
B|---------------------------------------------------------------------------|
G|---------------------------------------------------------------------------|
D|-----7p5------5---7---7---7--7--7---7/19---19---19---19--------------------|
A|-----------7---------------------------------------------------------------|
E|---------------------------------------------------------------------------|

fast part....
e|---------------------------------------------------------------------------|
B|---------------------------------------------------------------------------|
G|----------------------------------------12h14p12----12-----12h15p12----12--|
D|----------------------12h14p12----12-------------14----14-----------14-----|
A|----12h14p12----12-------------14----14------------------------------------|
E|-------------14----14------------------------------------------------------|

e|-----15p12-15p12------15p12-15p12------15p12-15p12---------15b--15b--------|
B|------------------15---------------15---------------15---------------------|
G|---------------------------------------------------------------------------|
D|---------------------------------------------------------------------------|
A|---------------------------------------------------------------------------|
E|---------------------------------------------------------------------------|


************************************

| /   slide up
| \   slide down
| h   hammer-on
| p   pull-off
| ~   vibrato
| +   harmonic
| x   Mute note
| b   Bend
| pb  Pre-bend
| br  Bend release
| pbr Pre-bend release
| brb Bend release bend

************************************
Live Before You die---Bon Jovi

Intro
G    C
G    C
Verse
G                               C
A little boy of nine years old, the whole world in his hands
G                                         C
Trying to toss that ball across the yard, a game of catch with my old man
Am                             C
He'd always say i'm sorry every time he had to leave
Am                                        C
And I was much to young to understand what he would say to me

Chorus

D                                      C
When you're young you always think the sun is gonna shine
D                                   C
There come a day you'll have to say hello to goodbye
D                               C
Sit down son come take my hand, look me in the eye
        Am              C                          G
Take these words promise me your gonna live before you die

Verse 2
G                          G
I was barely seventeen, the summer of seventy nine
G                           G
Already I was feeling like I was running out of time
Am                                        C
I had this girl we fell in love, or should I say that she had me
Am                                          C
Then one fateful night changed our lives and made a memory

Chorus
When youre young you always think the sun is gonna shine
There will come a day you'll have to say hello to goodbye
She laid me down she took my hand and looked me in the eye
And just before she kissed me she said you're gonna live before die

G for 4 bars

Bridge
    Am       C       D
You learn to love to live
    Am        C      D
You fight and you forgive
    Am         C          D
You learn whats wrong and right
          Am       C      G
You gotta live before you dieee


G                                        C
Ive made mistakes I've caught my breaks, but i've got no regrets
        G                                    C
Theres some things I don't remember but one thing I dont forget


Chorus
When you're young you always think the sun is gonna shine
There will come a day you'll have to say hello to goodbye
Shout it out let someone somewhere know that your alive
Take these words wear them well, you gotta live before you die

Bridge
You learn to love to live
You fight and you forgive
You face the darkest night
Just live before you die

-------------------------------------------------------------------------------
			     Broken Promiseland - Bon Jovi
-------------------------------------------------------------------------------
Tabbed by:pelanmar
Email:pelanmar@yahoo.com

Tuning:standard

Intro:
Not shure about he end....anyway its on keyboard
e|--5-5---5-5---7------------------------------------------------------------|
B|------7---------7--5--5--5--3--5--5--7--3--1-------------------------------|
G|---------------------------------------------------------------------------|
D|---------------------------------------------------------------------------|
A|---------------------------------------------------------------------------|
E|---------------------------------------------------------------------------|


e|---------------------------------------------------------------------------------|
B|---------------------------------------------------------------------------------|
G|-----1-----4----1---4------------------------------------------------------------|
D|-----2-----4----1---4------------------------------------------------------------|
A|-----2-----2----2---2------------------------------------------------------------|
E|---------------------------------------------------------------------------------|

Verse: listen for the rythem
e|------------------------------------------------------------------------------|
B|------------------------------------------------------------------------------|
G|------------------------------------------------------------------------------|
D|----9-------------------------------------------------------------------------|
A|----9-------------------------------------------------------------------------|
E|----7-------------------------------------------------------------------------|

chorus:

the third time i believe...does not have the last E chord just skip it...
e|---------------------------------------------------------------------------------|
B|-----------------1---------------------------------------------------------------|
G|----4------7-----2---1-----------------------------------------------------------|
D|----4------7-----2---2-----------------------------------------------------------|
A|----2------5---------2-----------------------------------------------------------|
E|---------------------------------------------------------------------------------|

Solo:
Sounds ok to me...
e|---------------------------------------------------------------------------|
B|---------------------------------------------------------------------------|
G|---------------------------------------------------------------------------|
D|---------------------------------------------------------------------------|
A|---2-2-0-2-4-5-5+--4--2---4---4-5--4---0--2--------------------------------|
E|---------------------------------------------------------------------------|

e|---------------------------------------------------------------------------|
B|------------------------------------------9/11--11/12--12--12-12-----------|
G|-----------------------6--7--7/9---9/11------------------------------------|
D|----7h9p7---9--9--7-9------------------------------------------------------|
A|-/9-------9----------------------------------------------------------------|
E|---------------------------------------------------------------------------|

come on now...crazy bends in B pentatonic...and than...just rising up in that scale
e|----------------------------------10b--------------------------------------|
B|------7----7---10p7--------------------------------------------------------|
G|---9b---9b-----------------------------------------------------------------|
D|---------------------repeat than-------------------------------------------|
A|---------------------------------------------------------------------------|
E|---------------------------------------------------------------------------|

Hope you like it...

************************************

| /   slide up
| \   slide down
| h   hammer-on
| p   pull-off
| ~   vibrato
| +   harmonic
| x   Mute note
| b   Bend
| pb  Pre-bend
| br  Bend release
| pbr Pre-bend release
| brb Bend release bend

************************************
Bon Jovi / The Circle


9. Love´s the Only Rule
(standard tuning )


Intro: B  E  B  E


  B                        E
I don't give a damn how it's supposed to be

  G#m                      F#
Light my world for you, it don't work for me

  E                        B
You write your truth and I write mine

  E                   F#
One man's ceiling's another man's sky high


  B                 E
Flying like an aeroplane

  B                              E
Cry like a lonely whistle of a long black train

  G#m
Dance in the pouring rain

  F#
Spit in the eye of a hurricane

  E                            F#
Who said life's got to be so cruel

                      B      E
Love's the only rule


(Same progression until...)

[solo]
B  E  B  E

Solo:
e|---------------------------------------------------------------------------|
B|---16----------------------------------------------------------------------|
G|------16-----16-----18-----16--18--20--13---13h15-11-11h13-9-9-9/8---------|
D|---------16-----16-----16------------------------------------------9-------|
A|---------------------------------------------------------------------------|
E|---------------------------------------------------------------------------|

e|---------------------------------------------------------------------------|
B|---------------------------------------------------------------------------|
G|------8-9-11-11br--9-8-9p8-----------8-8-11b----8-8--11br--9-8-------------|
D|----9----------------------9-----------------------------------------------|
A|-----------------------------9/11------------------------------------------|
E|---------------------------------------------------------------------------|

e|---------------------------------------------------------------------------|
B|--------------------------------------------------4/12--12--14b--14b-------|
G|----------------------6/8----8-8br---6--8---4--4---------------------------|
D|---2-2-----6-4---4-6-------------------------------------------------------|
A|---2-2---------------------------------------------------------------------|
E|---------------------------------------------------------------------------|


E                    F#
Might be a wrecking ball

                   G#m
Or just a wake up call

                       A
Tonight I let the pieces fall

[Woohoo's x3]

B   E   B   E

B   E   B   E


G#m  F#              B
       ...I´m gonna fly

like an aeroplane

  E
Cry like the whistle of a long black train

  B
Dance in the pouring rain

  E
I'm alive like a lonely note from John Coltrane

  G#m
Run, like it's a getaway

F#
Say those things you shouldn't say


       B
When love

                 E
Love's the only rule

     B
If love

                  E
Love's the only rule

      B
Our love

                  E
Love's the only rule

     B
Oh love

              E
Is the only rule


[Woohoo's x3]

-------------------------------------------------------------------------------
			     Fast Cars - Bon Jovi
-------------------------------------------------------------------------------
Tabbed by:pelanmar
Email:pelanmar@yahoo.com

Tuning:Standard

got it by ear...it sounds really close though
Intro and Verse
e|---------------------------------------------------------------------------|
B|---------------14--------------------14------------------14----------------|
G|-----------16------16-------------16----16------------16----16-------------|
D|----------------------------14---------------------------------------------|
A|----14------------------------------------------16-------------------------|
E|---------------------------------------------------------------------------|

e|---------------------------------------------------------------------------|
B|-------------14------------------------------------------------------------|
G|---------16------16--------------------------------------------------------|
D|---------------------------------------------------------------------------|
A|--12-----------------------------------------------------------------------|
E|---------------------------------------------------------------------------|

Chorus
        B               E                C#
e|---------------------------------------------------------------------------|
B|---------------------------------------------------------------------------|
G|----------------------9-9-9-9-9-9-9-9--------------------------------------|
D|-----9-9-9-9-9-9-9-9--9-9-9-9-9-9-9-9--11-11-11-11-11-11-11-11-------------|
A|-----9-9-9-9-9-9-9-9--7-7-7-7-7-7-7-7--11-11-11-11-11-11-11-11-------------|
E|-----7-7-7-7-7-7-7-7-------------------9--9--9--9--9--9--9--9--------------|
    A
e|---------------------------------------------------------------------------|
B|---------------------------------------------------------------------------|
G|---------------------------------------------------------------------------|
D|--7-7-7-7-7-7-7-7----------------------------------------------------------|
A|--7-7-7-7-7-7-7-7----------------------------------------------------------|
E|--5-5-5-5-5-5-5-5----------------------------------------------------------|

Thats all of the song enjoy!

************************************

| /   slide up
| \   slide down
| h   hammer-on
| p   pull-off
| ~   vibrato
| +   harmonic
| x   Mute note
| b   Bend
| pb  Pre-bend
| br  Bend release
| pbr Pre-bend release
| brb Bend release bend

************************************

************************************

| /   slide up
| \   slide down
| h   hammer-on
| p   pull-off
| ~   vibrato
| +   harmonic
| x   Mute note
| b   Bend
| pb  Pre-bend
| br  Bend release
| pbr Pre-bend release
| brb Bend release bend

************************************
-------------------------------------------------------------------------------
			     Happy Now - Bon Jovi
-------------------------------------------------------------------------------
Tabbed by:pelanmar
Email:pelanmar@hotmail.com

Tuning:standard

Intro:

e|---------------------------------------------------------------------------------|
B|--------15--13-------------------------------------------------------------------|
G|---12----------------------------------------------------------------------------|
D|---------------------------------------------------------------------------------|
A|---------------------------------------------------------------------------------|
E|---------------------------------------------------------------------------------|
Verse: wah wah pedal
repeat each note
e|-------------------------------------------------------------------------------|
B|-------------------------------------------------------------------------------|
G|-------------------------------------------------------------------------------|
D|-------------------------------------------------------------------------------|
A|------------2------------------3-----------------------------------------------|
E|----3-----------------0--------------------------------------------------------|

Chorus:
e|---------------------------------------------------------------------------|
B|---------------------------------------------------------------------------|
G|---------4----0----5-------------------------------------------------------|
D|---5-----4----2----5-------------------------------------------------------|
A|---5-----2----2----3-------------------------------------------------------|
E|---3----------0------------------------------------------------------------|

Solo:
e|--12--14--14b--14-12-14-12-------------------------------------------------|
B|----------------------------15b----12b--12b--12--12------------------------|
G|----------------------------------------------------14--14---12------------|
D|---------------------------------------------------------------------------|
A|---------------------------------------------------------------------------|
E|---------------------------------------------------------------------------|


************************************

| /   slide up
| \   slide down
| h   hammer-on
| p   pull-off
| ~   vibrato
| +   harmonic
| x   Mute note
| b   Bend
| pb  Pre-bend
| br  Bend release
| pbr Pre-bend release
| brb Bend release bend

************************************
Learn to Love ---Bon Jovi

(intro) C  G  Am  Em ( F  G  C  G )

        C           C/B
I have run from the truth
           Am         G
Since the days of my misspend youth
       F          C
I was hungry for kindness
      G
I was lost in life's blindness

            C            C/B
When you're born without wings
        Am                G
All you dream of, all you want
                   F
Is that feeling of flying
               G
Of rising and climbing

Am           F                   C      G
Halle, halle, we're one breath away
Am           F                G
halle, halle, from our judgement day
                    Am     F
Leave it all on the table
            C           G
If you lose all you win
              G                 F                   C
You've got to learn to love the world you're living in

(woohoo)

           C           C/B
Always thought I'd die young
           Am                G
In these hands I've held the gun
                       F     C
But it's too late for dying
             G
Now there's nothing worth hiding

           C               C/B
I've lost love, lived with shame
         Am          G
I was humbled by my fall from grace
         F                C
On the steps of decision
        G
It's revenge or forgiveness

Thats all great album...great band...i hope great tabs.....
comments
We did not receive enough feedback on this tab! Please rate:
1 2 3 4 5
3 comments total.
0 reply
dman078 wrote on April 21 2010, 05:23 pm

Nice tab man, think there were a few problem here there, especially with fast cars intro, that didnt work for me, but good job.

0 reply
Savas Young wrote on June 4 2010, 05:54 am

i agree with dman078

0 reply
redstrat95 wrote on November 2 2010, 11:26 am

i think theres a little mistake in the thorn in my side tab. in the intro you have to play in the 3 fret on the a string not in the 2. but good job

I want to post or [tab]
guest
You may want to rate the tab now too:
select rating
Please do not post tabs as comments. Select "correction" instead!