Oops, an error
Loading. Please wait.

Wanted Dead Or Alive Tab

ver2
ver2

Intro

Solo

Interactive

Video

More versions @911Tabs.com
106,511 views 108 this week
19 commentsread comments
1 2 3 4 5
accurate
x 32
Autoscroll
+/-
esc
set tempo
stop
Contributor
Difficulty
advanced
WARNING: You are trying to view
                                    content from Ultimate-Guitar.com
                                    in an unauthorized application,
                                    which is prohibited.

                                    Please use an official Ultimate
                                    Guitar Tabs application for iPhone,
                                    iPad or Android to access legitimate
                                    chords, guitar, bass, and drum tabs
                                    from Ultimate-Guitar.com database.

                                    Type "ultimate guitar tabs" in Apple
                                    App Store's or Android Market's
                                    search to find the application.
#----------------------------------PLEASE NOTE---------------------------------#
#This file is the author's own work and represents their interpretation of the #
#song. You may only use this file for private study, scholarship, or research. #
#------------------------------------------------------------------------------##

                              WANTED DEAD OR ALIVE
                             As recorded by Bon Jovi
                     (From the 1986 Album SLIPPERY WHEN WET)

Words and Music by Jon Bon Jovi & Richie Sambora

      D5(type 2)           C5(type 2)           G5(type 2)           F5(type 2)
      x 5 7 7 x x          x 3 5 5 x x          3 5 5 x x x          1 3 3 x x x

         D5/A                F5VIII                 D5                   C5
      x 0 0 2 3 5         x 8 10 10 x x         x 5 7 x x x          x 3 5 x x x

          G5                   F5
      3 5 x x x x          1 3 x x x x

Gtr I (E A D G B E) - '12 str. acous.'
Gtr II (E A D G B E) - 'w/dist.'
Gtr III (E A D G B E) - 'w/dist.'

 Intro
  Slowly Q=74
                                                         Dsus2
 4/4
  Gtr I
  W          W          H    E  Q     E      W            W
|----------|----------|------------------|-------------|-^0----|
|----------|----------|------------------|-------------|-^3----|
|----------|----------|------------------|-------------|-^2----|
|----------|----------|--------<7>-------|-<12>--------|-^0----|
|----------|----------|-------------<12>-|-------------|-^0----|
|----------|----------|------------------|-------------|-------|


  N.C.
  S  S  S  S S  S  S  S S  S  S  S S S S S   S S S S S S S S S S E +E. S
|------13---------12---------10--------8---|-----5-------3-------1-(1)---|
|------------------------------------------|-----------------------------|
|---14----14---12----12---10----10---9---9-|---5---5---4---4-4s2---------|
|-0----------0----------0----------0-------|-0-------0-----------------0-|
|------------------------------------------|-----------------------------|
|------------------------------------------|-----------------------------|


  +S   S  S  S S  S  S  S S  S  S  S S S S S   S S S S S S S S S S E +E  S S
|--------13---------12---------10--------8---|-----5-------3-------1-(1)------|
|--------------------------------------------|--------------------------------|
|-----14----14---12----12---10----10---9---9-|---5---5---4---4-4s2------------|
|-(0)----------0----------0----------0-------|-0-------0----------------------|
|--------------------------------------------|---------------------------0-0--|
|--------------------------------------------|--------------------------------|


                        (Dsus2)     N.C.                     (Dsus2)
  Gtr I
  E     E E     E +S  E S S S S S    E     E E     E  +S   E S S S S S
|---------------------0-----------|------------------------0-----------|
|-----------------------3-3-------|--------------------------3-3-------|
|---------------------------2-----|------------------------------2-----|
|-------0-3b3.5-0-(0)-------------|--------0-3b3.5-0--(0)--------------|
|-3b3.5-----------------------0-0-|--3b3.5-------------------------0-0-|
|---------------------------------|------------------------------------|
|
| Gtr II
|                                    \1________________/
| W                                  H                +H
|---------------------------------|------------------------------------|
|---------------------------------|------------------------------------|
|---------------------------------|-<7>--------------(<7>)-------------|
|---------------------------------|------------------------------------|
|---------------------------------|------------------------------------|
|---------------------------------|------------------------------------|


  N.C.                      (Dsus2)
    E     E E     E  +S   S S S S S S S
|-------------------------0--------------|
|---------------------------3-3-3--------|
|---------------------------------2------|
|---------0-3b3.5-0--(0)-----------------|
|---3b3.5---------------------------0-0--|
|----------------------------------------|
|
|   \1________________/
|  +H                +H
|----------------------------------------|
|----------------------------------------|
|-(<7>)-------------(<7>)----------------|
|----------------------------------------|
|----------------------------------------|
|----------------------------------------|


                           Verse
        F     E D           D
    E   E +S  S E +H        Q  E. S S S E S S S S
|------------------------||-2--2--2-3p2-0-0h2-----|
|------------------------||-3--3----3---3-3---3---|
|---------------2-(2)----||-2--2----2---2-2-----2-|
|-------3-(3)s2-0-(0)----||-0--0------------------|
|---3---3-(3)s2----------||-----------------------|
|------------------------||-----------------------|
|
|   ~~~~~
|  +W                       W
|------------------------||-----------------------|
|------------------------||-----------------------|
|-(<7>)------------------||-----------------------|
|------------------------||-----------------------|
|------------------------||-----------------------|
|------------------------||-----------------------|


  Cadd9       G5      N.C.
  E S S +S  S E +E. S S S S S
|-3-3-3-(3)-3-3-(3)------------|
|-3-3-3-(3)-3-3-(3)------------|
|-0-0-0-(0)-0-0-(0)-0-------0--|
|-2-2-2-(2)-2-0-(0)-0-----0----|
|-3-3-3-(3)-3-2-(2)---0h2------|
|-------------3-(3)------------|
|
| W
|------------------------------|
|------------------------------|
|------------------------------|
|------------------------------|
|------------------------------|
|------------------------------|


  Cadd9       G5      N.C.
  E S S +S  S E +E. S S S S S
|-3-3-3-(3)-3-3-(3)-----------|
|-3-3-3-(3)-3-3-(3)-----------|
|-0-0-0-(0)-0-0-(0)-0-------0-|
|-2-2-2-(2)-2-0-(0)-0-----0---|
|-3-3-3-(3)-3-2-(2)---0h2-----|
|-------------3-(3)-----------|
|
| W
|-----------------------------|
|-----------------------------|
|-----------------------------|
|-----------------------------|
|-----------------------------|
|-----------------------------|


  G5F   D
  E E E  E       S  S S S S S   S       S       S E. E. S T T S S S S S S S
|---1----2-------2p=0-----0-0----------------|--0h2--2--2-2h3-2-0-0-0h2-2-2-|
|-3-1----3------------3---3-----3------------|--3----3----3---3-3-3-3---3-3-|
|-0-2----2--------------2---------------2----|--2----2----2---2-2-2-2---2-2-|
|-0-3----0-----------------------------------|--0----0----------------------|
|-2-3----------------------------------------|------------------------------|
|-3------------------------------------------|------------------------------|
|
|                               |----3-----|
| Q   E  E      +Q.            +S   +S     S    W
|--------------------------------------------|------------------------------|
|--------------------------------------------|------------------------------|
|-------12b14==(12)-----------(12)r(12)p==10-|------------------------------|
|--------------------------------------------|-12---------------------------|
|--------------------------------------------|------------------------------|
|--------------------------------------------|------------------------------|


  Cadd9                  N.C.
    E  S S E E +S  S S S S S S S
|---3--3-3---3-(3)-3-------------|
|---3--3-3---3-(3)---3-3---------|
|---0--0-0---0-(0)---0---------0-|
|---2--2-2---2-(2)-----------0---|
|---3--3-3---3-(3)-------0h2-----|
|--------------------------------|
|
|  +Q      Q    H
|--------------------------------|
|--------------------------------|
|--------------------------------|
|-(12)---------------------------|
|--------------------------------|
|--------------------------------|


  Cadd9     G5        N.C.        F  D
  E S S S S E +E  S S S S S S   E Q  E +S  S S S S S S S
|-3---3-3-3-3-(3)-3-3---------|---1--2-(2)-0h2------------||
|-3---3-3-3-3-(3)-3-3---------|---1--3-(3)-----3-3--------||
|-0-0-0-0-0-0-(0)-0-0-------0-|-0-2--2-(2)---------2------||
|-2---2-2-2-0-(0)-0-0-----0---|-0-3--0-(0)-----------0----||
|-3---3-3-3-2-(2)-----0h2-----|------------------------0--||
|-----------3-(3)-------------|---------------------------||
|
| W                             W
|-----------------------------|---------------------------||
|-----------------------------|---------------------------||
|-----------------------------|---------------------------||
|-----------------------------|---------------------------||
|-----------------------------|---------------------------||
|-----------------------------|---------------------------||


 Chorus
  C       G5        N.C.
  E S S E E +E  S S S S S S
|-0-0-0---3-(3)-3-----------|
|-1-1-1---3-(3)-3-----------|
|-0-0-0---0-(0)-0---------0-|
|-2-2-2---0-(0)-0-0-----0---|
|-3-3-3---2-(2)-----0h2-----|
|---------3-(3)-------------|


  F        D                       C       G5        N.C.
  E. S S S E +S  T T S S S S S S   E S S E E S S S S S S S S
|-1--1-1-1-2-(2)-2h3p2---0-------|-0-0-0---3-3-3-3-3---------|
|-1--1-1-1-3-(3)-----------3-----|-1-1-1---3-3-3-3-3---------|
|-2--2-2-2-2-(2)-------2-----2---|-0-0-0---0-0-0-0-0-------0-|
|-3--3-3-3-0-(0)-----------------|-2-2-2---0-0-0-0-0-----0---|
|------------------------------0-|-3-3-3---2---------0h2-----|
|--------------------------------|---------3-----------------|


  E     E E     E S S S S S S E
|---------------2-2p0-2---------|
|---------------3-------3-3-----|
|---------------2-----------2---|
|-------0-3b3.5-0-------------0-|
|-3b3.5-0-----------------------|
|-------------------------------|


  C       G5          N.C.                    D
  E S S E E +S  S S S S S S S   E     E E     E +H
|-0-0-0---3-(3)-3-3-3---------|---------------2-(2)----|
|-1-1-1---3-(3)-3-3-3---------|---------------3-(3)----|
|-0-0-0---0-(0)-0-0-0-------0-|-------2-------2-(2)----|
|-2-2-2---0-(0)-0-0-0-----0---|-------0-3b3.5-0-(0)----|
|-3-3-3---2-(2)-------0h2-----|-3b3.5------------------|
|---------3-(3)---------------|------------------------|


  N.C.
  Gtr I
  S  S  S  S S  S  S  S S  S  S  S S S S S    S     S S      S    S  S  S    S   S  S E +E. S
|------13---------12---------10--------8---|----------5-----------------3-------------1-(1)---|
|------------------------------------------|--------------------------------------------------|
|---14----14---12----12---10----10---9---9-|--------5--------5-------4-------4---4s=2---------|
|-0----------0----------0----------0-------|--0-------------------0-------------------------0-|
|------------------------------------------|--------------------------------------------------|
|------------------------------------------|--------------------------------------------------|
|
| Gtr II
| W                                           E.         a  +S   +E     E       +Q       Q
|------------------------------------------|--------------------------------------------------|
|------------------------------------------|-13b15======13r(13)-(13)--------------------------|
|------------------------------------------|---------------------------12b14r==(12)-----10----|
|------------------------------------------|--------------------------------------------------|
|------------------------------------------|--------------------------------------------------|
|------------------------------------------|--------------------------------------------------|


  +S          S     S  S   S   S  S  S S  S  S  S S S S S
|------------------13------------12---------10--------8---|
|---------------------------------------------------------|
|------------14-------14------12----12---10----10---9---9-|
|-(0)----------------------0-----------0----------0-------|
|---------------------------------------------------------|
|---------------------------------------------------------|
|
|  |------3------|
|  S     +S      S  E     +H.
|---------------------------------------------------------|
|---------------------------------------------------------|
|-12b14r(12)p===10----------------------------------------|
|------------------12----(12)-----------------------------|
|---------------------------------------------------------|
|---------------------------------------------------------|


                               Verse
                                D
  S S S S S S S S S S E +Q      Q  E. S S S E S S S S
|-----5-------3-------1-(1)--||-2--2--2-3p2-0-0h2-----|
|----------------------------||-3--3----3---3-3---3---|
|---5---5---4---4-4s2--------||-2--2----2---2-2-----2-|
|-0-------0------------------||-0--0------------------|
|----------------------------||-----------------------|
|----------------------------||-----------------------|


  Cadd9       G5      N.C.
  E S S +S  S E +E. S S S S S
|-3-3-3-(3)-3-3-(3)------------|
|-3-3-3-(3)-3-3-(3)------------|
|-0-0-0-(0)-0-0-(0)-0-------0--|
|-2-2-2-(2)-2-0-(0)-0-----0----|
|-3-3-3-(3)-3-2-(2)---0h2------|
|-------------3-(3)------------|


  Cadd9       G5
  E S S +S  S E +E  S S S S S S
|-3-3-3-(3)-3-3-(3)-3-3-3-3-3-3-|
|-3-3-3-(3)-3-3-(3)-3-3-3-3-3-3-|
|-0-0-0-(0)-0-0-(0)-0-0-0-0-0-0-|
|-2-2-2-(2)-2-0-(0)-0-0-0-0-0-0-|
|-3-3-3-(3)-3-2-(2)-2-2-2-2-2-2-|
|-------------3-(3)-3-3-3-3-3-3-|


    F   D
  E E E E S S S S S S S S   S E. E. S T T S S S S S S S
|---1---2-2p0-----0-0-----|-0h2--2--2-2h3-2-0-0-0h2-2-2--|
|-3-1---3-----3---3---3---|-3----3----3---3-3-3-3---3-3--|
|-0-2---2-------2-------2-|-2----2----2---2-2-2-2---2-2--|
|-0-3---0-----------------|-0----0-----------------------|
|-2-3---------------------|------------------------------|
|-3-----------------------|------------------------------|


  Cadd9               N.C.
  E S S E E +S  S S S S S S S
|-3-3-3---3-(3)-3-------------|
|-3-3-3---3-(3)---3-3---------|
|-0-0-0---0-(0)---0---------0-|
|-2-2-2---2-(2)-----------0---|
|-3-3-3---3-(3)-------0h2-----|
|-----------------------------|


  Cadd9     G5        N.C.        F  D
  E S S S S E +E  S S S S S S   E Q  E +S  S S S S S S S
|-3---3-3-3-3-(3)-3-3---------|---1--2-(2)-0h2------------||
|-3---3-3-3-3-(3)-3-3---------|---1--3-(3)-----3-3--------||
|-0-0-0-0-0-0-(0)-0-0-------0-|-0-2--2-(2)---------2------||
|-2---2-2-2-0-(0)-0-0-----0---|-0-3--0-(0)-----------0----||
|-3---3-3-3-2-(2)-----0h2-----|------------------------0--||
|-----------3-(3)-------------|---------------------------||


 Chorus
  C       G5              N.C.
  E S S E  E      +E  S S   S  S   S  S
|-0-0-0----3------(3)-3-----------------|
|-1-1-1----3------(3)-3-----------------|
|-0-0-0----0------(0)-0---------------0-|
|-2-2-2----0------(0)-0-0----------0----|
|-3-3-3----2------(2)-------0h=2--------|
|----------3------(3)-------------------|
|
| Gtr II
| Q     E  E      +Q       +E     +E
|---------13b15==(13)-----(13)r==(13)---|
|---------------------------------------|
|---------------------------------------|
|---------------------------------------|
|---------------------------------------|
|---------------------------------------|


  F         D                                    C         G5        N.C.
   E. S S S E  +S   T T  S  S      S   S  S  S    E  S S E E S S S S   S  S   S   S
|--1--1-1-1-2--(2)--2h3p=2---------0-----------|--0--0-0---3-3-3-3-3----------------|
|--1--1-1-1-3--(3)---------------------3-------|--1--1-1---3-3-3-3-3----------------|
|--2--2-2-2-2--(2)----------2-------------2----|--0--0-0---0-0-0-0-0--------------0-|
|--3--3-3-3-0--(0)-----------------------------|--2--2-2---0-0-0-0-0----------0-----|
|--------------------------------------------0-|--3--3-3---2-----------0h=2---------|
|----------------------------------------------|-----------3------------------------|
|
|  H           +S   S    S  S     +S   S  S  S    H.                  +E     +E
|-10----------(10)-----------------------------|------------------------------------|
|------------------13---10---------------------|------------------------------------|
|--------------------------12b14r(12)p10-------|------------------------------------|
|----------------------------------------12-10-|-12------------------(12)---(12)\---|
|----------------------------------------------|------------------------------------|
|----------------------------------------------|------------------------------------|


                D
  E     E E     E  S  S S S S S  E
|---------------2--2p=0-2------------|
|---------------3---------3-3--------|
|---------------2-------------2------|
|-------0-3b3.5-0----------------0---|
|-3b3.5-0----------------------------|
|------------------------------------|
|
| E     E E     E +Q.           +E
|------------------------------------|
|------------------------------------|
|------------------------------------|
|-------0-3b3.5-0-(0)-----------(0)\-|
|-3b3.5------------------------------|
|------------------------------------|


  C       G5          N.C.                    D
  E S S E E +S  S S S S S S S   E     E E     E +H
|-0-0-0---3-(3)-3-3-3---------|---------------2-(2)----|
|-1-1-1---3-(3)-3-3-3---------|---------------3-(3)----|
|-0-0-0---0-(0)-0-0-0-------0-|-------2-------2-(2)----|
|-2-2-2---0-(0)-0-0-0-----0---|-------0-3b3.5-0-(0)----|
|-3-3-3---2-(2)-------0h2-----|-3b3.5------------------|
|---------3-(3)---------------|------------------------|
|
| W                             E     E E     E +H
|-----------------------------|------------------------|
|-----------------------------|------------------------|
|-----------------------------|------------------------|
|-----------------------------|-------0-3b3.5-0-(0)----|
|-----------------------------|-3b3.5------------------|
|-----------------------------|------------------------|


  N.C.
  S  S  S  S S  S  S  S S  S  S  S S S S S   S S S S S S S S S S E +E. S
|------13---------12---------10--------8---|-----5-------3-------1-(1)---|
|------------------------------------------|-----------------------------|
|---14----14---12----12---10----10---9---9-|---5---5---4---4-4s2---------|
|-0----------0----------0----------0-------|-0-------0-----------------0-|
|------------------------------------------|-----------------------------|
|------------------------------------------|-----------------------------|


  +S   S  S  S S  S  S  S S  S  S  S S S S S
|--------13---------12---------10--------8---|
|--------------------------------------------|
|-----14----14---12----12---10----10---9---9-|
|-(0)----------0----------0----------0-------|
|--------------------------------------------|
|--------------------------------------------|


                                   Guitar Solo
                                    D5
                                    Gtr III
  W                                 Q.         E   +H
                                    |          |    |
                                    /          /    /

  Gtr II
  H               S  E.    +Q       S S S S E  S S  T T +E.   S S S S
|--------------------------------||-----------------------------------|
|--------------------------------||-----------------------------------|
|--------------------------------||-----------------------------------|
|--------------------------------||-----------------------------------|
|--------------------------------||-5s3-3s5-5--5-3--3h5-(5)---3-5-5-3-|
|-------------------17----(17)\--||-----------------------------------|
|
| Gtr I
| S S S S S S S S S  S  E  +Q       Q       E.   S  S    S  E S S S S
|-----5-------3---------1--(1)---||-2-------2----2--3p===2--0-0h2-----|
|--------------------------------||-3-------3-------3-------3-3---3---|
|---5---5---4---4-4s=2-----------||-2-------2-------2-------2-2-----2-|
|-0-------0----------------------||-0-------0-------------------------|
|--------------------------------||-----------------------------------|
|--------------------------------||-----------------------------------|


  C5                             G5
  Q.                             E +H
  |                              |  |
  /                              /  /

                                 ~~~~~~
  |---3----|     |-----3------|                    |---3---|
  E    E   E     S     +S    +S  E +Q     T  T  S  S  S    S
|----------------------------------------------------13---15-|
|----------------------------------------------13-15---------|
|----------------------------------------12h14---------------|
|-5b7==5---5r---[5]b7==(5)r==(5)-3-(3)-----------------------|
|------------------------------------------------------------|
|------------------------------------------------------------|
|
| E      S    S +S         S     E +E. S  S     S  S    S
|-3------3----3-(3)--------3-----3-(3)-----------------------|
|-3------3----3-(3)--------3-----3-(3)-----------------------|
|-0------0----0-(0)--------0-----0-(0)-0----------------0----|
|-2------2----2-(2)--------2-----0-(0)-0-----------0---------|
|-3------3----3-(3)--------3-----2-(2)----0h====2------------|
|--------------------------------3-(3)-----------------------|


  C5                    G5                                   F5          D5
   Q.                    E          +H                    E   Q           E     +H
   |                     |           |                    |   |           |      |
   /                     /           /                    /   /           /      /

                         ~~~~~~~~~~~
   Q          a  +S   S  S      +Q       +E     S S S     E   S  S  S  S  S  S  +Q.           E
|-15b17======15r(15)-13-15b17==(15)-----(15)r---------|--------------------------------------------|
|-----------------------------------------------------|--------------------------------------------|
|-----------------------------------------------------|-[12]---------------------------------------|
|-----------------------------------------------------|------12-10---------------------------------|
|-------------------------------------------------0-0-|------12-10-12-10-10s12-(12)----------12\---|
|-----------------------------------------------------|------------10--8--8s10-(10)----------------|
|
|  E     S S     +S   S  E          +E.   S   S S S S     E   E     E     E      S S S S S S  S  S
|--3-----3-3-----(3)--3--3----------(3)---------------|-------1-----------2------2p0-----0-0-------|
|--3-----3-3-----(3)--3--3----------(3)---------------|---3---1-----------3----------3---3----3----|
|--0-----0-0-----(0)--0--0----------(0)---0---------0-|---0---2-----------2------------2---------2-|
|--2-----2-2-----(2)--2--0----------(0)---0-------0---|---0---3-----------0------------------------|
|--3-----3-3-----(3)--3--2----------(2)-------0h2-----|---2---3------------------------------------|
|------------------------3----------(3)---------------|---3----------------------------------------|


                                                    C5           G5
  Q.                E   +H                          Q.            E        +H
  |                 |    |                          |             |         |
  /                 /    /                          /             /         /

                                          ~~~                               ~~~
  S S   E      S  S S S  S    S  S   +S   Q         S  S S S S S  S    +S   Q.             S  S
|-------------------------------------------------|---------------------------------------------|
|-------------------------------------------------|---------------------------------------------|
|-------------------------------------------------|--------------------------------------/10-12-|
|------[3]b3.5-----------3---[5]-5b7r(5)-[3]------|----3-------3-[5]b7r(5)-[3]------------------|
|-3-5----------5----3-5---------------------------|-5----5-3-5----------------------------------|
|-----------------5-------------------------------|---------------------------------------------|
|
| S E.         E.     S  T T  S  S    S   S S S S   E    S S E    E        +S  S S S S S   S  S
|-0h2----------2------2--2h3--2--0----0---0h2-2-2-|-3----3-3------3--------(3)-3----------------|
|-3------------3---------3----3--3----3---3---3-3-|-3----3-3------3--------(3)---3-3------------|
|-2------------2---------2----2--2----2---2---2-2-|-0----0-0------0--------(0)---0------------0-|
|-0------------0----------------------------------|-2----2-2------2--------(2)-------------0----|
|-------------------------------------------------|-3----3-3------3--------(3)-------0h2--------|
|-------------------------------------------------|---------------------------------------------|


  C5                          G5
   Q.                          E         +H
   |                           |          |
   /                           /          /

   S     +S   S  S     +S   S  S     +S   S    S      +S    S   +E   S S
|--------------------------13--------------------------------------------|
|------------13--------------------------13------------------------------|
|-12b14-(12)----12b14-(12)----12b14-(12)-----[12]b14r(12)-[10]-(10)------|
|------------------------------------------------------------------------|
|----------------------------------------------------------------------8-|
|------------------------------------------------------------------------|
|
|  E          S  S      S   S  E         +E            S    S    S S S S
|--3-------------3------3---3--3---------(3)-----------3----3------------|
|--3-------------3------3---3--3---------(3)-----------3----3------------|
|--0----------0--0------0---0--0---------(0)-----------0----0----------0-|
|--2-------------2------2---2--0---------(0)-----------0----0--------0---|
|--3-------------3------3---3--2---------(2)---------------------0h2-----|
|------------------------------3---------(3)-----------------------------|


       F5        D5
   E    Q         E  +H
   |    |         |   |
   /    /         /   /

   PM----------|
   S S  S S  S S  E  +H
|--------------------------------------||
|--------------------------------------||
|--------------------------------------||
|--------------------------------------||
|-10-8----8------12-(12)---------------||
|------10---10-8-10-(10)---------------||
|
|  E    Q         E  +S  S S S S S S S
|-------1---------2--(2)-0h2-----------||
|-------1---------3--(3)-----3-3-------||
|--0----2---------2--(2)---------2-----||
|--0----3---------0--(0)-----------0---||
|------------------------------------0-||
|--------------------------------------||


 Chorus
  C5      G5                  F5(type 2D5
  W                           W
  Q     E E +H                Q    E   E +Q.             S S
|---------------------------|---------------------------------|
|---------------------------|---------------------------------|
|---------0-(0)-------------|---------------------------------|
|-5-------0-(0)-------------|----------7-(7)------------------|
|-3-------------------------|-3--------5-(5)-------------0-2--|
|---------3-(3)-------------|-1-------------------------------|
|
| E S S E E +E  S S S S S S   E. S S S E +S  T T S S S S S S
|-0-0-0---3-(3)-3-----------|-1--1-1-1-2-(2)-2h3p2---0--------|
|-1-1-1---3-(3)-3-----------|-1--1-1-1-3-(3)-----------3------|
|-0-0-0---0-(0)-0---------0-|-2--2-2-2-2-(2)-------2-----2----|
|-2-2-2---0-(0)-0-0-----0---|-3--3-3-3-0-(0)------------------|
|-3-3-3---2-(2)-----0h2-----|------------------------------0--|
|---------3-(3)-------------|---------------------------------|


  C5      G
  Q     E E +H
|-----------------------------|
|-----------------------------|
|---------0-(0)---------------|
|-5-------0-(0)---------------|
|-3-------2-(2)---------------|
|---------3-(3)---------------|
|
| E S S E E  S  S S S S S S S
|-0-0-0---3--3--3-3-3---------|
|-1-1-1---3--3--3-3-3---------|
|-0-0-0---0--0--0-0-0-------0-|
|-2-2-2---0--0--0-0-0-----0---|
|-3-3-3---2-----------0h2-----|
|---------3-------------------|


  N.C.            D5
                                   2/4
  Gtrs I, II
  E     E E     E S S S S S S S S   S S S S S S S S
|---------------------------------|------------------||
|---------------------------------|------------------||
|-----------------2-2-2-2-2-2-2-2-|-2-2-2-2-2-2-2-2--||
|-------0-3b3.5-0-0-0-0-0-0-0-0-0-|-0-0-0-0-0-0-0-0--||
|-3b3.5---------------------------|------------------||
|---------------------------------|------------------||
|
| W                                 H
|---------------------------------|------------------||
|---------------------------------|------------------||
|---------------------------------|------------------||
|---------------------------------|------------------||
|---------------------------------|------------------||
|---------------------------------|------------------||


 Verse
  D5(type 2)                 C5(type 2)  G5(type 2)
 4/4
  Gtr III
  Q  E  E   +H               Q      E    E +H
  |     |    |               |           |  |
  /     /    /               /           /  /

  Gtr I
  Q  E.   S  S S E S S S S   E S S +S  S E +E. S S S S S
|-2--2----2--3p2-0-0h2-----|-3-3-3-(3)-3-3-(3)-----------|
|-3--3-------3---3-3---3---|-3-3-3-(3)-3-3-(3)-----------|
|-2--2-------2---2-2-----2-|-0-0-0-(0)-0-0-(0)-0-------0-|
|-0--0---------------------|-2-2-2-(2)-2-0-(0)-0-----0---|
|--------------------------|-3-3-3-(3)-3-2-(2)---0h2-----|
|--------------------------|-------------3-(3)-----------|


  C5(type 2)  G5(type 2)
  Q      E    E +H
  |           |  |
  /           /  /

  E S S +S  S E +E  S S S S S S
|-3-3-3-(3)-3-3-(3)-3-3-3-3-3-3-|
|-3-3-3-(3)-3-3-(3)-3-3-3-3-3-3-|
|-0-0-0-(0)-0-0-(0)-0-0-0-0-0-0-|
|-2-2-2-(2)-2-0-(0)-0-0-0-0-0-0-|
|-3-3-3-(3)-3-2-(2)-2-2-2-2-2-2-|
|-------------3-(3)-3-3-3-3-3-3-|


    F5(tD5/A2)               D5(type 2)
  E Q   E +H                 Q    E  E   +H
  | |   |  |                 |       |    |
  / /   /  /                 /       /    /

  E E E E  S S S S S S S S   S E. E.   S  T T S S S S S S S
|---1---2--2p0-----0-0-----|-0h2--2----2--2h3-2-0-0-0h2-2-2-|
|-3-1---3------3---3---3---|-3----3-------3---3-3-3-3---3-3-|
|-0-2---2--------2-------2-|-2----2-------2---2-2-2-2---2-2-|
|-0-3---0------------------|-0----0-------------------------|
|-2-3----------------------|--------------------------------|
|-3------------------------|--------------------------------|


  C5(type G5(type 2)            C5(type 2)G5(type 2)
  Q     E E +H                  Q     E   E +H
  |       |  |                  |         |  |
  /       /  /                  /         /  /

  E S S E E +S  S S S S S S S   E S S S S E +E  S S S S S S
|-3-3-3---3-(3)-3-------------|-3---3-3-3-3-(3)-3-3---------|
|-3-3-3---3-(3)---3-3---------|-3---3-3-3-3-(3)-3-3---------|
|-0-0-0---0-(0)---0---------0-|-0-0-0-0-0-0-(0)-0-0-------0-|
|-2-2-2---2-(2)-----------0---|-2---2-2-2-0-(0)-0-0-----0---|
|-3-3-3---3-(3)-------0h2-----|-3---3-3-3-2-(2)-----0h2-----|
|-----------------------------|-----------3-(3)-------------|
|
| W                             W
|-----------------------------|-----------------------------|
|-----------------------------|-----------------------------|
|-----------------------------|-----------------------------|
|-----------------------------|-----------------------------|
|-----------------------------|-----------------------------|
|-----------------------------|-----------------------------|


    F5(typD5/A
  E  Q     E    +H
  |  |     |     |
  /  /     /     /

  E  Q     E    +S   S  S    S  S     S  S  S
|----1-----2----(2)--0h=2-----------------------||
|----1-----3----(3)----------3--3---------------||
|-0--2-----2----(2)-------------------2---------||
|-0--3-----0----(0)----------------------0------||
|-------------------------------------------0---||
|-----------------------------------------------||
|
| Gtr II
|                       ~~~~~
| E  E  E  S  S  S   S  E       T  T  S  S  S
|---10-10-10-10-10--10-13b15---10---------------||
|---10-10-10-10-10--10------------13p10-10------||
|------------------------------------------12---||
|-----------------------------------------------||
|-----------------------------------------------||
|-----------------------------------------------||


 Chorus
  C5(type 2G5(type 2)
   Q     E E +H
   |       |  |
   /       /  /

   E S S E E +E  S S S S S S
|--0-0-0---3-(3)-3-----------|
|--1-1-1---3-(3)-3-----------|
|--0-0-0---0-(0)-0---------0-|
|--2-2-2---0-(0)-0-0-----0---|
|--3-3-3---2-(2)-----0h2-----|
|----------3-(3)-------------|
|
|  ~~
|  W
|----------------------------|
|-10-------------------------|
|----------------------------|
|----------------------------|
|----------------------------|
|----------------------------|


  F5(type 2D5/A                    C5(type G5(type 2)
  Q.       E +H                    Q     E E +H
  |        |  |                    |       |  |
  /        /  /                    /       /  /

  E. S S S E +S  T T S S S S S S   E S S E E  S S S S S S S S
|-1--1-1-1-2-(2)-2h3p2---0-------|-0-0-0---3--3-3-3-3---------|
|-1--1-1-1-3-(3)-----------3-----|-1-1-1---3--3-3-3-3---------|
|-2--2-2-2-2-(2)-------2-----2---|-0-0-0---0--0-0-0-0-------0-|
|-3--3-3-3-0-(0)-----------------|-2-2-2---0--0-0-0-0-----0---|
|------------------------------0-|-3-3-3---2----------0h2-----|
|--------------------------------|---------3------------------|
|
| W                                W
|--------------------------------|----------------------------|
|--------------------------------|----------------------------|
|--------------------------------|----------------------------|
|--------------------------------|----------------------------|
|--------------------------------|----------------------------|
|--------------------------------|----------------------------|


  C5(typD5F5VIIID5(type 2)         C5      G5
  E     E E     E +H               W
  |     | |     |  |
  /     / /     /  /

                                   Gtr III
  W                                Q     E  E      +H
|--------------------------------|---------------------------------|
|--------------------------------|---------------------------------|
|--------------------------------|----------0------(0)-------------|
|--------------------------------|-5--------0------(0)-------------|
|--------------------------------|-3-------------------------------|
|--------------------------------|----------3------(3)-------------|
|
| Gtr I
| E     E E     E  S S S S S S E   E S S E  E      +E  S S S S S S
|---------------2--2p0-2---------|-0-0-0----3------(3)-3-----------|
|---------------3--------3-3-----|-1-1-1----3------(3)-3-----------|
|---------------2------------2---|-0-0-0----0------(0)-0---------0-|
|-------0-3b3.5-0--------------0-|-2-2-2----0------(0)-0-0-----0---|
|-3b3.5-0------------------------|-3-3-3----2------(2)-----0h2-----|
|--------------------------------|----------3------(3)-------------|
|
|                                  Gtr II
| W                                Q     E  E      +H
|--------------------------------|---------15b17==(15)-------------|
|--------------------------------|---------------------------------|
|--------------------------------|---------------------------------|
|--------------------------------|---------------------------------|
|--------------------------------|---------------------------------|
|--------------------------------|---------------------------------|


  F5          D5
    W
    Q     E   E +H
|-----------------------------------|
|-----------------------------------|
|-------------2-(2)-----------------|
|-------------0-(0)-----------------|
|---3---------0-(0)-----------------|
|---1-------------------------------|
|
|   E.  S S S E +S  T T S S S S S S
|---1---1-1-1-2-(2)-2h3p2---0-------|
|---1---1-1-1-3-(3)-----------3-----|
|---2---2-2-2-2-(2)-------2-----2---|
|---3---3-3-3-0-(0)-----------------|
|---------------------------------0-|
|-----------------------------------|
|
|  +H            H
|-(15)r-----------------------------|
|-----------------------------------|
|-----------------------------------|
|-----------------------------------|
|-----------------------------------|
|-----------------------------------|


  C5      G5
  Q     E E +H
|-----------------------------|
|-----------------------------|
|---------0-(0)---------------|
|-5-------0-(0)---------------|
|-3---------------------------|
|---------3-(3)---------------|
|
| E S S E E  S  S S S S S S S
|-0-0-0---3--3--3-3-3---------|
|-1-1-1---3--3--3-3-3---------|
|-0-0-0---0--0--0-0-0-------0-|
|-2-2-2---0--0--0-0-0-----0---|
|-3-3-3---2-----------0h2-----|
|---------3-------------------|


  N.C.          D5                 C5      G5
  E     E E     E +H               Q     E E +H
|--------------------------------|-----------------------------|
|--------------------------------|-----------------------------|
|---------------2-(2)------------|---------0-(0)---------------|
|-------0-3b3.5-0-(0)------------|-5-------0-(0)---------------|
|-3b3.5---------0-(0)------------|-3---------------------------|
|--------------------------------|---------3-(3)---------------|
|
| E     E E     E  S S S S S S E   E S S E E  S  S S S S S S S
|---------------2--2p0-2---------|-0-0-0---3--3--3-3-3---------|
|---------------3--------3-3-----|-1-1-1---3--3--3-3-3---------|
|---------------2------------2---|-0-0-0---0--0--0-0-0-------0-|
|-------0-3b3.5-0--------------0-|-2-2-2---0--0--0-0-0-----0---|
|-3b3.5-0------------------------|-3-3-3---2-----------0h2-----|
|--------------------------------|---------3-------------------|


  N.C.          D5
  E     E E     E +H
|--------------------------------|
|--------------------------------|
|---------------2-(2)------------|
|-------0-3b3.5-0-(0)------------|
|-3b3.5--------------------------|
|--------------------------------|
|
| E     E E     E  S S S S S S E
|---------------2--2p0-2---------|
|---------------3--------3-3-----|
|---------------2------------2---|
|-------0-3b3.5-0--------------0-|
|-3b3.5-0------------------------|
|--------------------------------|


  C5      G5                    N.C.          D5
  Q     E E +H                  E     E E     E +H
|-----------------------------|--------------------------------|
|-----------------------------|--------------------------------|
|---------0-(0)---------------|---------------2-(2)------------|
|-5-------0-(0)---------------|-------0-3b3.5-0-(0)------------|
|-3---------------------------|-3b3.5--------------------------|
|---------3-(3)---------------|--------------------------------|
|
| E S S E E  S  S S S S S S S   E     E E     E  S S S S S S E
|-0-0-0---3--3--3-3-3---------|---------------2--2p0-2---------|
|-1-1-1---3--3--3-3-3---------|---------------3--------3-3-----|
|-0-0-0---0--0--0-0-0-------0-|---------------2------------2---|
|-2-2-2---0--0--0-0-0-----0---|-------0-3b3.5-0--------------0-|
|-3-3-3---2-----------0h2-----|-3b3.5-0------------------------|
|---------3-------------------|--------------------------------|


  N.C.            G5                    N.C.          D5
  E     E   E     E +E    S S Q         E     E E     E +H
|-------------------------------------|--------------------------------|
|-----------------3-(3)-------3-------|--------------------------------|
|-----------------0-(0)-------0-------|---------------2-(2)------------|
|-------0---3b3.5-0-(0)-------0-------|-------0-3b3.5-0-(0)------------|
|-3b3.5-------------------------------|-3b3.5--------------------------|
|-----------------3-(3)---3-3-3-------|--------------------------------|
|
| E     S S E     E  S  S S S S S S S   E     E E     E  S S S S S S E
|-0-----0-0-------3--3--3-3-3---------|---------------2--2p0-2---------|
|-1-----1-1-------3--3--3-3-3---------|---------------3--------3-3-----|
|-0-----0-0-------0--0--0-0-0-------0-|---------------2------------2---|
|-2-----2-2-------0--0--0-0-0-----0---|-------0-3b3.5-0--------------0-|
|-3-----3-3-------2-----------0h2-----|-3b3.5-0------------------------|
|-----------------3-------------------|--------------------------------|


  N.C.          G5         N.C.          D5
  Gtrs I, III
  E     E E     E +H       E     E E     E +H
|------------------------|------------------------||
|---------------3-(3)----|------------------------||
|---------------0-(0)----|---------------2-(2)----||
|-------0-3b3.5-0-(0)----|-------0-3b3.5-0-(0)----||
|-3b3.5------------------|-3b3.5------------------||
|---------------3-(3)----|------------------------||


 Outro
  N.C.
  Gtr I
  S  S  S  S S  S  S  S S  S  S  S S S S S
|------13---------12---------10--------8----|
|-------------------------------------------|
|---14----14---12----12---10----10---9---9--|
|-0----------0----------0----------0--------|
|-------------------------------------------|
|-------------------------------------------|


  S S S S S S S S S S E +E. S
|-----5-------3-------1-(1)---|
|-----------------------------|
|---5---5---4---4-4s2---------|
|-0-------0-----------------0-|
|-----------------------------|
|-----------------------------|


  H.=H                                                         Q=50
                                                               D/A
  +S   S  S  S S  S  S  S S  S  S  S S S S S   S S S S S S S S  H
|--------13---------12---------10--------8---|-----5-------3---^2----*|
|--------------------------------------------|-----------------^3----*|
|-----14----14---12----12---10----10---9---9-|---5---5---4---4-^2----*|
|-(0)----------0----------0----------0-------|-0-------0-------^0----*|
|--------------------------------------------|-----------------^0----*|
|--------------------------------------------|-----------------------*|


Duration Legend
---------------
W - whole; H - half; Q - quarter; E - 8th; S - 16th; T - 32nd; X - 64th; a - acciaccatura
+ - note tied to previous; . - note dotted; .. - note double dotted
Uncapitalized letters represent notes that are staccato (1/2 duration)
Irregular groupings are notated above the duration line
Duration letters will always appear directly above the note/fret number it represents the
duration for.  Duration letters with no fret number below them represent rests.  Multi-
bar rests are notated in the form Wxn, where n is the number of bars to rest for.  Low
melody durations appear below the staff

Tablature Legend
----------------
 h   - hammer-on
 p   - pull-off
 b   - bend
 pb  - pre-bend
 r   - bend release (if no number after the r, then release immediately)
 /\  - slide into or out of (from/to "nowhere")
 s   - legato slide
 S   - shift slide
<n>  - natural harmonic
[n]  - artificial harmonic
n(n) - tapped harmonic
 ~   - vibrato
 tr  - trill
 T   - tap
 TP  - trem. picking
 PM  - palm muting
\n/  - tremolo bar dip; n = amount to dip
 \n  - tremolo bar down
 n/  - tremolo bar up
/n\  - tremolo bar inverted dip
 =   - hold bend; also acts as connecting device for hammers/pulls
 <>  - volume swell (louder/softer)
 x   - on rhythm slash represents muted slash
 o   - on rhythm slash represents single note slash

Misc Legend
-----------
 |  - bar
||  - double bar
||o - repeat start
o|| - repeat end
*|  - double bar (ending)
 :  - bar (freetime)
 $  - Segno
 &  - Coda
Tempo markers - <E/E./Q/Q./H/H.> = BPM(8/16=s8/s16), where s8 = swing 8ths, s16 = swing 16ths
comments
print report bad tab
19 comments total. Showing first comments.
+1 reply
AxlRose54 wrote on January 21 2006, 02:46 pm

pretty good job man

+2 reply
Zoso12 wrote on March 29 2006, 10:23 pm

yeah its good-but man do u think you coulda made it a little simpler-its a little hard to read at parts....but other than that its good

+1 reply
..NEM.. wrote on April 7 2006, 06:06 pm

good job. 5 stars

I want to post or [tab]
guest
You may want to rate the tab now too:
select rating
Please do not post tabs as comments. Select "correction" instead!