Oops, an error
Loading. Please wait.

We Werent Born To Follow Tab

ver1
ver1

Intro

Solo

Whole song

Interactive

More versions @911Tabs.com
7,840 views 15 this week
1 commentread comment
1 2 3 4 5
accurate
x 1
Autoscroll
+/-
esc
set tempo
stop
Contributor
Difficulty
Tabbers playing skills
intermediate
intermediate +
WARNING: You are trying to view
                                    content from Ultimate-Guitar.com
                                    in an unauthorized application,
                                    which is prohibited.

                                    Please use an official Ultimate
                                    Guitar Tabs application for iPhone,
                                    iPad or Android to access legitimate
                                    chords, guitar, bass, and drum tabs
                                    from Ultimate-Guitar.com database.

                                    Type "ultimate guitar tabs" in Apple
                                    App Store's or Android Market's
                                    search to find the application.
          
           
Guitar 1


     W                   W                   W                 
E||-------------------|-------------------|-------------------|
B||-------------------|--4----------------|-------------------|
G||--1----------------|--4----------------|--3----------------|
D||--2----------------|--4----------------|--4----------------|
A||--2----------------|--2----------------|--4----------------|
E||--0----------------|-------------------|--2----------------|


  E  H.           E     W                   W                 
---------------------|-------------------|-------------------|
---------------------|-------------------|--4----------------|
-----3---------------|--1----------------|--4----------------|
-----4---------------|--2----------------|--4----------------|
--L--4------------L--|--2----------------|--2----------------|
--L--2------------L--|--0----------------|-------------------|


                                            PM PM PM PM PM PM PM PM  
  W                   E  H.           E     E  E  E  E  E  E  E  E   
-------------------|---------------------|--------------------------|
-------------------|---------------------|--------------------------|
--3----------------|-----3---------------|--------------------------|
--4----------------|-----4---------------|--4--4--4--4--4--4--4--4--|
--4----------------|--L--4------------L--|--2--2--2--2--2--2--2--2--|
--2----------------|--L--2------------L--|--------------------------|


  PM PM PM PM PM PM PM PM    PM PM PM PM PM PM PM PM  
  E  E  E  E  E  E  E  E     E  E  E  E  E  E  E  E   
--------------------------|--------------------------|
--------------------------|--------------------------|
--------------------------|--------------------------|
--4--4--4--4--4--4--4--4--|--------------------------|
--2--2--2--2--2--2--2--2--|--6--6--6--6--6--6--6--6--|
--------------------------|--4--4--4--4--4--4--4--4--|


  PM PM PM PM PM PM PM PM    PM PM PM PM PM PM PM PM  
  E  E  E  E  E  E  E  E     E  E  E  E  E  E  E  E   
--------------------------|--------------------------|
--------------------------|--------------------------|
--------------------------|--------------------------|
--------------------------|--6--6--6--6--6--6--6--6--|
--6--6--6--6--6--6--6--6--|--4--4--4--4--4--4--4--4--|
--4--4--4--4--4--4--4--4--|--------------------------|


  PM PM PM PM PM PM PM PM    PM PM PM PM PM PM PM PM  
  E  E  E  E  E  E  E  E     E  E  E  E  E  E  E  E   
--------------------------|--------------------------|
--------------------------|--------------------------|
--------------------------|--------------------------|
--6--6--6--6--6--6--6--6--|--------------------------|
--4--4--4--4--4--4--4--4--|--4--4--4--4--4--4--4--4--|
--------------------------|--2--2--2--2--2--2--2--2--|


  PM PM PM PM PM PM PM PM    PM PM PM PM PM PM PM PM  
  E  E  E  E  E  E  E  E     E  E  E  E  E  E  E  E   
--------------------------|--------------------------|
--------------------------|--------------------------|
--------------------------|--------------------------|
--------------------------|--4--4--4--4--4--4--4--4--|
--4--4--4--4--4--4--4--4--|--2--2--2--2--2--2--2--2--|
--2--2--2--2--2--2--2--2--|--------------------------|


  PM PM PM PM PM PM PM PM    PM PM PM PM PM PM PM PM  
  E  E  E  E  E  E  E  E     E  E  E  E  E  E  E  E   
--------------------------|--------------------------|
--------------------------|--------------------------|
--------------------------|--------------------------|
--4--4--4--4--4--4--4--4--|--------------------------|
--2--2--2--2--2--2--2--2--|--6--6--6--6--6--6--6--6--|
--------------------------|--4--4--4--4--4--4--4--4--|


  PM PM PM PM PM PM PM PM    PM PM PM PM PM PM PM PM  
  E  E  E  E  E  E  E  E     E  E  E  E  E  E  E  E   
--------------------------|--------------------------|
--------------------------|--------------------------|
--------------------------|--------------------------|
--------------------------|--6--6--6--6--6--6--6--6--|
--6--6--6--6--6--6--6--6--|--4--4--4--4--4--4--4--4--|
--4--4--4--4--4--4--4--4--|--------------------------|


  PM PM PM PM PM PM PM PM    PM PM PM PM PM PM PM PM  
  E  E  E  E  E  E  E  E     E  E  E  E  E  E  E  E   
--------------------------|--------------------------|
--------------------------|--------------------------|
--------------------------|--------------------------|
--6--6--6--6--6--6--6--6--|--------------------------|
--4--4--4--4--4--4--4--4--|--4--4--4--4--4--4--4--4--|
--------------------------|--2--2--2--2--2--2--2--2--|


  PM PM PM PM PM PM PM PM                                             
  E  E  E  E  E  E  E  E     H        Q.     E     Q    H.            
--------------------------|---------------------|--------------------|
--------------------------|---------------------|--------------------|
--------------------------|---------------------|--------------------|
--------------------------|--2--------L------4--|--L-----------------|
--4--4--4--4--4--4--4--4--|--2--------L------2--|--L-----------------|
--2--2--2--2--2--2--2--2--|--0--------L---------|--------------------|


  W                   W                   W                   W                 
-------------------|-------------------|-------------------|-------------------|
-------------------|-------------------|-------------------|--5----------------|
--4----------------|--1----------------|--3----------------|--6----------------|
--6----------------|--2----------------|--4----------------|--6----------------|
--6----------------|--2----------------|--4----------------|--4----------------|
--4----------------|--0----------------|--2----------------|-------------------|


  W                   W                   W                 
-------------------|-------------------|-------------------|
-------------------|-------------------|-------------------|
--4----------------|--1----------------|--3----------------|
--6----------------|--2----------------|--4----------------|
--6----------------|--2----------------|--4----------------|
--4----------------|--0----------------|--2----------------|


  E  H.           E     W                   W                 
---------------------|-------------------|-------------------|
---------------------|-------------------|-------------------|
-----3---------------|--4----------------|--1----------------|
-----4---------------|--6----------------|--2----------------|
--L--4------------L--|--6----------------|--2----------------|
--L--2------------L--|--4----------------|--0----------------|


  W                   W                   W                   W                 
-------------------|-------------------|-------------------|-------------------|
-------------------|--5----------------|-------------------|-------------------|
--3----------------|--6----------------|--4----------------|--1----------------|
--4----------------|--6----------------|--6----------------|--2----------------|
--4----------------|--4----------------|--6----------------|--2----------------|
--2----------------|-------------------|--4----------------|--0----------------|


  W                   E  H.           E     W                 
-------------------|---------------------|-------------------|
-------------------|---------------------|-------------------|
--3----------------|-----3---------------|--1----------------|
--4----------------|-----4---------------|--2----------------|
--4----------------|--L--4------------L--|--2----------------|
--2----------------|--L--2------------L--|--0----------------|


  W                   W                   E  H.           E   
-------------------|-------------------|---------------------|
--4----------------|-------------------|---------------------|
--4----------------|--3----------------|-----3---------------|
--4----------------|--4----------------|-----4---------------|
--2----------------|--4----------------|--L--4------------L--|
-------------------|--2----------------|--L--2------------L--|


  W                   W                   W                 
-------------------|-------------------|-------------------|
-------------------|--4----------------|-------------------|
--1----------------|--4----------------|--3----------------|
--2----------------|--4----------------|--4----------------|
--2----------------|--2----------------|--4----------------|
--0----------------|-------------------|--2----------------|


                        PM PM PM PM PM PM PM PM    PM PM PM PM PM PM PM PM  
  E  H.           E     E  E  E  E  E  E  E  E     E  E  E  E  E  E  E  E   
---------------------|--------------------------|--------------------------|
---------------------|--------------------------|--------------------------|
-----3---------------|--------------------------|--------------------------|
-----4---------------|--4--4--4--4--4--4--4--4--|--4--4--4--4--4--4--4--4--|
--L--4------------L--|--2--2--2--2--2--2--2--2--|--2--2--2--2--2--2--2--2--|
--L--2------------L--|--------------------------|--------------------------|


  PM PM PM PM PM PM PM PM    PM PM PM PM PM PM PM PM  
  E  E  E  E  E  E  E  E     E  E  E  E  E  E  E  E   
--------------------------|--------------------------|
--------------------------|--------------------------|
--------------------------|--------------------------|
--------------------------|--------------------------|
--6--6--6--6--6--6--6--6--|--6--6--6--6--6--6--6--6--|
--4--4--4--4--4--4--4--4--|--4--4--4--4--4--4--4--4--|


  PM PM PM PM PM PM PM PM    PM PM PM PM PM PM PM PM  
  E  E  E  E  E  E  E  E     E  E  E  E  E  E  E  E   
--------------------------|--------------------------|
--------------------------|--------------------------|
--------------------------|--------------------------|
--6--6--6--6--6--6--6--6--|--6--6--6--6--6--6--6--6--|
--4--4--4--4--4--4--4--4--|--4--4--4--4--4--4--4--4--|
--------------------------|--------------------------|


  PM PM PM PM PM PM PM PM    PM PM PM PM PM PM PM PM                        
  E  E  E  E  E  E  E  E     E  E  E  E  E  E  E  E     H        Q.     E   
--------------------------|--------------------------|---------------------|
--------------------------|--------------------------|---------------------|
--------------------------|--------------------------|---------------------|
--------------------------|--------------------------|--2--------L------4--|
--4--4--4--4--4--4--4--4--|--4--4--4--4--4--4--4--4--|--2--------L------2--|
--2--2--2--2--2--2--2--2--|--2--2--2--2--2--2--2--2--|--0--------L---------|


  Q    H.              W                   W                 
--------------------|-------------------|-------------------|
--------------------|-------------------|-------------------|
--------------------|--4----------------|--1----------------|
--L-----------------|--6----------------|--2----------------|
--L-----------------|--6----------------|--2----------------|
--------------------|--4----------------|--0----------------|


  W                   W                   W                   W                 
-------------------|-------------------|-------------------|-------------------|
-------------------|--5----------------|-------------------|-------------------|
--3----------------|--6----------------|--4----------------|--1----------------|
--4----------------|--6----------------|--6----------------|--2----------------|
--4----------------|--4----------------|--6----------------|--2----------------|
--2----------------|-------------------|--4----------------|--0----------------|


  W                   E  H.           E     W                 
-------------------|---------------------|-------------------|
-------------------|---------------------|-------------------|
--3----------------|-----3---------------|--4----------------|
--4----------------|-----4---------------|--6----------------|
--4----------------|--L--4------------L--|--6----------------|
--2----------------|--L--2------------L--|--4----------------|


  W                   W                   W                   W                 
-------------------|-------------------|-------------------|-------------------|
-------------------|-------------------|--5----------------|-------------------|
--1----------------|--3----------------|--6----------------|--4----------------|
--2----------------|--4----------------|--6----------------|--6----------------|
--2----------------|--4----------------|--4----------------|--6----------------|
--0----------------|--2----------------|-------------------|--4----------------|


  W                   W                   E  H.           E   
-------------------|-------------------|---------------------|
-------------------|-------------------|---------------------|
--1----------------|--3----------------|-----3---------------|
--2----------------|--4----------------|-----4---------------|
--2----------------|--4----------------|--L--4------------L--|
--0----------------|--2----------------|--L--2------------L--|


  W                   W                   W                 
-------------------|-------------------|-------------------|
-------------------|--4----------------|-------------------|
--1----------------|--4----------------|--3----------------|
--2----------------|--4----------------|--4----------------|
--2----------------|--2----------------|--4----------------|
--0----------------|-------------------|--2----------------|


  E  H.           E     W                   W                 
---------------------|-------------------|-------------------|
---------------------|-------------------|--4----------------|
-----3---------------|--1----------------|--4----------------|
-----4---------------|--2----------------|--4----------------|
--L--4------------L--|--2----------------|--2----------------|
--L--2------------L--|--0----------------|-------------------|


  W                   E  H.           E     W                 
-------------------|---------------------|-------------------|
-------------------|---------------------|-------------------|
--3----------------|-----3---------------|--4----------------|
--4----------------|-----4---------------|--6----------------|
--4----------------|--L--4------------L--|--6----------------|
--2----------------|--L--2------------L--|--4----------------|


  W                   W                   W                   W                 
-------------------|-------------------|-------------------|-------------------|
-------------------|-------------------|--5----------------|-------------------|
--1----------------|--3----------------|--6----------------|--1----------------|
--2----------------|--4----------------|--6----------------|--2----------------|
--2----------------|--4----------------|--4----------------|--2----------------|
--0----------------|--2----------------|-------------------|--0----------------|


  W                   W                   Q    H.            
-------------------|-------------------|--------------------|
--4----------------|-------------------|--------------------|
--4----------------|--3----------------|--------------------|
--4----------------|--4----------------|--L-----------------|
--2----------------|--4----------------|--L-----------------|
-------------------|--2----------------|--L-----------------|


  W                   W                   W                   W                 
-------------------|-------------------|-------------------|-------------------|
-------------------|-------------------|-------------------|--5----------------|
--4----------------|--1----------------|--3----------------|--6----------------|
--6----------------|--2----------------|--4----------------|--6----------------|
--6----------------|--2----------------|--4----------------|--4----------------|
--4----------------|--0----------------|--2----------------|-------------------|


  W                   W                   W                 
-------------------|-------------------|-------------------|
-------------------|-------------------|-------------------|
--4----------------|--1----------------|--3----------------|
--6----------------|--2----------------|--4----------------|
--6----------------|--2----------------|--4----------------|
--4----------------|--0----------------|--2----------------|


  E  H.           E     W                   W                 
---------------------|-------------------|-------------------|
---------------------|-------------------|-------------------|
-----3---------------|--4----------------|--1----------------|
-----4---------------|--6----------------|--2----------------|
--L--4------------L--|--6----------------|--2----------------|
--L--2------------L--|--4----------------|--0----------------|


  W                   W                   W                   W                 
-------------------|-------------------|-------------------|-------------------|
-------------------|--5----------------|-------------------|-------------------|
--3----------------|--6----------------|--4----------------|--1----------------|
--4----------------|--6----------------|--6----------------|--2----------------|
--4----------------|--4----------------|--6----------------|--2----------------|
--2----------------|-------------------|--4----------------|--0----------------|


  W                   E  H.           E     W                 
-------------------|---------------------|-------------------|
-------------------|---------------------|-------------------|
--3----------------|-----3---------------|--1----------------|
--4----------------|-----4---------------|--2----------------|
--4----------------|--L--4------------L--|--2----------------|
--2----------------|--L--2------------L--|--0----------------|


  W                   W                   E  H.           E   
-------------------|-------------------|---------------------|
--4----------------|-------------------|---------------------|
--4----------------|--3----------------|-----3---------------|
--4----------------|--4----------------|-----4---------------|
--2----------------|--4----------------|--L--4------------L--|
-------------------|--2----------------|--L--2------------L--|


  W                   W                   W                 
-------------------|-------------------|-------------------|
-------------------|--4----------------|-------------------|
--1----------------|--4----------------|--3----------------|
--2----------------|--4----------------|--4----------------|
--2----------------|--2----------------|--4----------------|
--0----------------|-------------------|--2----------------|


  E  H.           E     W                   W                 
---------------------|-------------------|-------------------|
---------------------|-------------------|--4----------------|
-----3---------------|--1----------------|--4----------------|
-----4---------------|--2----------------|--4----------------|
--L--4------------L--|--2----------------|--2----------------|
--L--2------------L--|--0----------------|-------------------|


  W                   E  H.           E     W                 
-------------------|---------------------|-------------------|
-------------------|---------------------|-------------------|
--3----------------|-----3---------------|--1----------------|
--4----------------|-----4---------------|--2----------------|
--4----------------|--L--4------------L--|--2----------------|
--2----------------|--L--2------------L--|--0----------------|


  W                   W                   E  H.           E   
-------------------|-------------------|---------------------|
--4----------------|-------------------|---------------------|
--4----------------|--3----------------|-----3---------------|
--4----------------|--4----------------|-----4---------------|
--2----------------|--4----------------|--L--4------------L--|
-------------------|--2----------------|--L--2------------L--|


  W                   W                   W                   W                 
-------------------|-------------------|-------------------|-------------------|
-------------------|--4----------------|-------------------|-------------------|
--1----------------|--4----------------|--3----------------|--L----------------|
--2----------------|--4----------------|--4----------------|--L----------------|
--2----------------|--2----------------|--4----------------|--L----------------|
--0----------------|-------------------|--2----------------|--L----------------|


  W                  
-------------------||
-------------------||
--L----------------||
--L----------------||
--L----------------||
--L----------------||





Guitar 2


     E  E   E  S S E   E  S S E     E  E   E  S S E   E  S S  E   
E||------------------------------|-------------------------------|
B||--x--x--12--x-x-x--12--x-x----|--x--x--12--x-x-x--12--x-x-----|
G||------------------------------|-------------------------------|
D||---------------------------9--|---------------------------11--|
A||------------------------------|-------------------------------|
E||------------------------------|-------------------------------|


  E  E   E  S S E   E  S S  E      E  E  E   E  E  E   Q     
-------------------------------|----------------------------|
--x--x--11--x-x-x--11--x-x-----|--12--x--x--11--x--x--11----|
-------------------------------|----------------------------|
---------------------------11--|----------------------------|
-------------------------------|----------------------------|
-------------------------------|----------------------------|


  Q    Q    E   E   E  E     E  E  Q    E  E  Q       Q    Q    E  E  Q     
--7----0----0-------------|-----7------------------|-----------------------|
--5----5----5s--7s--5--4--|--L--4--4----4--5--4----|-----------------------|
-----------------------4--|--L-----4----4--4--4----|--6----6----6--4--6----|
--------------------------|------------------------|--4----4----4--4--4----|
--------------------------|------------------------|-----------------------|
--------------------------|------------------------|-----------------------|


  Q    Q    E  E  Q       W                   W                 
-----------------------|-------------------|-------------------|
-----------------------|-------------------|-------------------|
--6----6----6--4--6----|--4----------------|--L----------------|
--4----4----4--4--4----|--4----------------|--L----------------|
-----------------------|--2----------------|--L----------------|
-----------------------|-------------------|-------------------|


-------------------|-------------------|-------------------|-------------------|
-------------------|-------------------|-------------------|-------------------|
-------------------|-------------------|-------------------|-------------------|
-------------------|-------------------|-------------------|-------------------|
-------------------|-------------------|-------------------|-------------------|
-------------------|-------------------|-------------------|-------------------|


                                           W                  
-------------------|-------------------|--(2)----------------|
-------------------|-------------------|--(4)----------------|
-------------------|-------------------|--(4)----------------|
-------------------|-------------------|--(4)----------------|
-------------------|-------------------|--(2)----------------|
-------------------|-------------------|---------------------|


-------------------|-------------------|-------------------|-------------------|
-------------------|-------------------|-------------------|-------------------|
-------------------|-------------------|-------------------|-------------------|
-------------------|-------------------|-------------------|-------------------|
-------------------|-------------------|-------------------|-------------------|
-------------------|-------------------|-------------------|-------------------|


-------------------|-------------------|-------------------|-------------------|
-------------------|-------------------|-------------------|-------------------|
-------------------|-------------------|-------------------|-------------------|
-------------------|-------------------|-------------------|-------------------|
-------------------|-------------------|-------------------|-------------------|
-------------------|-------------------|-------------------|-------------------|


                      E  E   E  S S E   E  S S E   
-------------------|------------------------------|
-------------------|--x--x--12--x-x-x--12--x-x----|
-------------------|------------------------------|
-------------------|---------------------------9--|
-------------------|------------------------------|
-------------------|------------------------------|


  E  E   E  S S E   E  S S  E     E  E   E  S S E   E  S S  E   
-------------------------------|-------------------------------|
--x--x--12--x-x-x--12--x-x-----|--x--x--11--x-x-x--11--x-x-----|
-------------------------------|-------------------------------|
---------------------------11--|---------------------------11--|
-------------------------------|-------------------------------|
-------------------------------|-------------------------------|


  E  E   E  S S E   E  S S  E     E  E   E  S S E   E  S S E   
--------12---------12----------|------------------------------|
--x--x------x-x-x------x-x-----|--x--x--12--x-x-x--12--x-x----|
-------------------------------|------------------------------|
---------------------------11--|---------------------------9--|
-------------------------------|------------------------------|
-------------------------------|------------------------------|


  E  E   E  S S E   E  S S  E     E  E   E  S S E   E  S S  E   
-------------------------------|-------------------------------|
--x--x--12--x-x-x--12--x-x-----|--x--x--11--x-x-x--11--x-x-----|
-------------------------------|-------------------------------|
---------------------------11--|---------------------------11--|
-------------------------------|-------------------------------|
-------------------------------|-------------------------------|


   E  E  E   E  E  E   Q       E  E   E  S S E   E  S S E   
----------------------------|------------------------------|
--12--x--x--11--x--x--11----|--x--x--12--x-x-x--12--x-x----|
----------------------------|------------------------------|
----------------------------|---------------------------9--|
----------------------------|------------------------------|
----------------------------|------------------------------|


  E  E   E  S S E   E  S S  E     E  E   E  S S E   E  S S  E   
-------------------------------|-------------------------------|
--x--x--12--x-x-x--12--x-x-----|--x--x--11--x-x-x--11--x-x-----|
-------------------------------|-------------------------------|
---------------------------11--|---------------------------11--|
-------------------------------|-------------------------------|
-------------------------------|-------------------------------|


  E  E   E  S S E   E  S S  E     E  E   E  S S E   E  S S E   
--------12---------12----------|------------------------------|
--x--x------x-x-x------x-x-----|--x--x--12--x-x-x--12--x-x----|
-------------------------------|------------------------------|
---------------------------11--|---------------------------9--|
-------------------------------|------------------------------|
-------------------------------|------------------------------|


  E  E   E  S S E   E  S S  E     E  E   E  S S E   E  S S  E   
-------------------------------|-------------------------------|
--x--x--12--x-x-x--12--x-x-----|--x--x--11--x-x-x--11--x-x-----|
-------------------------------|-------------------------------|
---------------------------11--|---------------------------11--|
-------------------------------|-------------------------------|
-------------------------------|-------------------------------|


   E  E  E   E  E  E   Q       Q    Q    E   E   E  E   
----------------------------|--7----0----0-------------|
--12--x--x--11--x--x--11----|--5----5----5s--7s--5--4--|
----------------------------|-----------------------4--|
----------------------------|--------------------------|
----------------------------|--------------------------|
----------------------------|--------------------------|


  E  E  Q    E  E  Q       Q    Q    E  E  Q       Q    Q    E  E  Q     
-----7------------------|-----------------------|-----------------------|
--L--4--4----4--5--4----|-----------------------|-----------------------|
--L-----4----4--4--4----|--6----6----6--4--6----|--6----6----6--4--6----|
------------------------|--4----4----4--4--4----|--4----4----4--4--4----|
------------------------|-----------------------|-----------------------|
------------------------|-----------------------|-----------------------|


  Q    Q    E   E   E  E     E  E  Q    E  E  Q       Q    Q    E  E  Q     
--7----0----0-------------|-----7------------------|-----------------------|
--5----5----5s--7s--5--4--|--L--4--4----4--5--4----|-----------------------|
-----------------------4--|--L-----4----4--4--4----|--6----6----6--4--6----|
--------------------------|------------------------|--4----4----4--4--4----|
--------------------------|------------------------|-----------------------|
--------------------------|------------------------|-----------------------|


  Q    Q    E  E  Q        W                                      
-----------------------|--(2)----------------|-------------------|
-----------------------|--(4)----------------|-------------------|
--6----6----6--4--6----|--(4)----------------|-------------------|
--4----4----4--4--4----|--(4)----------------|-------------------|
-----------------------|--(2)----------------|-------------------|
-----------------------|---------------------|-------------------|


-------------------|-------------------|-------------------|-------------------|
-------------------|-------------------|-------------------|-------------------|
-------------------|-------------------|-------------------|-------------------|
-------------------|-------------------|-------------------|-------------------|
-------------------|-------------------|-------------------|-------------------|
-------------------|-------------------|-------------------|-------------------|


-------------------|-------------------|-------------------|-------------------|
-------------------|-------------------|-------------------|-------------------|
-------------------|-------------------|-------------------|-------------------|
-------------------|-------------------|-------------------|-------------------|
-------------------|-------------------|-------------------|-------------------|
-------------------|-------------------|-------------------|-------------------|


  E  E   E  S S E   E  S S E     E  E   E  S S E   E  S S  E   
------------------------------|-------------------------------|
--x--x--12--x-x-x--12--x-x----|--x--x--12--x-x-x--12--x-x-----|
------------------------------|-------------------------------|
---------------------------9--|---------------------------11--|
------------------------------|-------------------------------|
------------------------------|-------------------------------|


  E  E   E  S S E   E  S S  E     E  E   E  S S E   E  S S  E   
-------------------------------|--------12---------12----------|
--x--x--11--x-x-x--11--x-x-----|--x--x------x-x-x------x-x-----|
-------------------------------|-------------------------------|
---------------------------11--|---------------------------11--|
-------------------------------|-------------------------------|
-------------------------------|-------------------------------|


  E  E   E  S S E   E  S S E     E  E   E  S S E   E  S S  E   
------------------------------|-------------------------------|
--x--x--12--x-x-x--12--x-x----|--x--x--12--x-x-x--12--x-x-----|
------------------------------|-------------------------------|
---------------------------9--|---------------------------11--|
------------------------------|-------------------------------|
------------------------------|-------------------------------|


  E  E   E  S S E   E  S S  E      E  E  E   E  E  E   Q     
-------------------------------|----------------------------|
--x--x--11--x-x-x--11--x-x-----|--12--x--x--11--x--x--11----|
-------------------------------|----------------------------|
---------------------------11--|----------------------------|
-------------------------------|----------------------------|
-------------------------------|----------------------------|


  E  E   E  S S E   E  S S E     E  E   E  S S E   E  S S  E   
------------------------------|-------------------------------|
--x--x--12--x-x-x--12--x-x----|--x--x--12--x-x-x--12--x-x-----|
------------------------------|-------------------------------|
---------------------------9--|---------------------------11--|
------------------------------|-------------------------------|
------------------------------|-------------------------------|


  E  E   E  S S E   E  S S  E     E  E   E  S S E   E  S S  E   
-------------------------------|--------12---------12----------|
--x--x--11--x-x-x--11--x-x-----|--x--x------x-x-x------x-x-----|
-------------------------------|-------------------------------|
---------------------------11--|---------------------------11--|
-------------------------------|-------------------------------|
-------------------------------|-------------------------------|


  E  E   E  S S E   E  S S E     E  E   E  S S E   E  S S  E   
------------------------------|-------------------------------|
--x--x--12--x-x-x--12--x-x----|--x--x--12--x-x-x--12--x-x-----|
------------------------------|-------------------------------|
---------------------------9--|---------------------------11--|
------------------------------|-------------------------------|
------------------------------|-------------------------------|


  E  E   E  S S E   E  S S  E      E  E  E   E  E  E   Q     
-------------------------------|----------------------------|
--x--x--11--x-x-x--11--x-x-----|--12--x--x--11--x--x--11----|
-------------------------------|----------------------------|
---------------------------11--|----------------------------|
-------------------------------|----------------------------|
-------------------------------|----------------------------|


  Q    Q    E   E   E  E     E  E  Q    E  E  Q       Q    Q    E  E  Q     
--7----0----0-------------|-----7------------------|-----------------------|
--5----5----5s--7s--5--4--|--L--4--4----4--5--4----|-----------------------|
-----------------------4--|--L-----4----4--4--4----|--6----6----6--4--6----|
--------------------------|------------------------|--4----4----4--4--4----|
--------------------------|------------------------|-----------------------|
--------------------------|------------------------|-----------------------|


  Q    Q    E  E  Q       Q    Q    E   E   E  E     E  E  Q    E  E  Q     
-----------------------|--7----0----0-------------|-----7------------------|
-----------------------|--5----5----5s--7s--5--4--|--L--4--4----4--5--4----|
--6----6----6--4--6----|-----------------------4--|--L-----4----4--4--4----|
--4----4----4--4--4----|--------------------------|------------------------|
-----------------------|--------------------------|------------------------|
-----------------------|--------------------------|------------------------|


  Q    Q    E  E  Q       Q    Q    E  E  Q     
-----------------------|-----------------------|
-----------------------|-----------------------|
--6----6----6--4--6----|--6----6----6--4--6----|
--4----4----4--4--4----|--4----4----4--4--4----|
-----------------------|-----------------------|
-----------------------|-----------------------|


  S  S S S T  T S S  S S S T  T S S  S S S  
-------7---------------7---------------7---|
--7h-9---9-7h-9---7h-9---9-7h-9---7h-9---9-|
----------------8---------------8----------|
-------------------------------------------|
-------------------------------------------|
-------------------------------------------|


                                                           PM  PM   
  T  T S S  S S S T  T S S  S S S E.    S    H.            E   S S  
--------------7---------------7---9br---7-|--9---------------------|
--7h-9---7h-9---9-7h-9---7h-9---9---------|------------------------|
-------8---------------8------------------|-------------------11---|
------------------------------------------|---------------11--11---|
------------------------------------------|----------------9-------|
------------------------------------------|------------------------|


        PH                                                                
  E     Q.       Q       Q         E    S  S   E   S  S  E  S S  E  S S   
-------------------------------|--------0--0---0---0--0--0--0-0--0--0-0--|
-----<>14b------14br----12~----|--12~--12-12s-11--11-11s-9--9-9s-7--7-7s-|
-------------------------------|-----------------------------------------|
-------------------------------|-----------------------------------------|
-------------------------------|-----------------------------------------|
-------------------------------|-----------------------------------------|


  E  S S  E  S S  E  S S S  T  T  E     H.            E  E     
--0--0-0--0--0-0--0------------------|------------------------|
--5--5-5s-4--4-4s-2--2-2-2h-4p-2p-0--|--2~------------L-------|
-------------------------------------|-------------------3br--|
-------------------------------------|------------------------|
-------------------------------------|------------------------|
-------------------------------------|------------------------|


            \3                                             
  E   E     H         Q       E  E   E  S S E   E  S S E   
---------------------------|------------------------------|
---------------------------|--x--x--12--x-x-x--12--x-x----|
--L------------------------|------------------------------|
-----(4)-------------------|---------------------------9--|
----------<>4\-------------|------------------------------|
---------------------------|------------------------------|


  E  E   E  S S E   E  S S  E     E  E   E  S S E   E  S S  E   
-------------------------------|-------------------------------|
--x--x--12--x-x-x--12--x-x-----|--x--x--11--x-x-x--11--x-x-----|
-------------------------------|-------------------------------|
---------------------------11--|---------------------------11--|
-------------------------------|-------------------------------|
-------------------------------|-------------------------------|


  E  E   E  S S E   E  S S  E     E  E   E  S S E   E  S S E   
--------12---------12----------|------------------------------|
--x--x------x-x-x------x-x-----|--x--x--12--x-x-x--12--x-x----|
-------------------------------|------------------------------|
---------------------------11--|---------------------------9--|
-------------------------------|------------------------------|
-------------------------------|------------------------------|


  E  E   E  S S E   E  S S  E     E  E   E  S S E   E  S S  E   
-------------------------------|-------------------------------|
--x--x--12--x-x-x--12--x-x-----|--x--x--11--x-x-x--11--x-x-----|
-------------------------------|-------------------------------|
---------------------------11--|---------------------------11--|
-------------------------------|-------------------------------|
-------------------------------|-------------------------------|


   E  E  E   E  E  E   Q       E  E   E  S S E   E  S S E   
----------------------------|------------------------------|
--12--x--x--11--x--x--11----|--x--x--12--x-x-x--12--x-x----|
----------------------------|------------------------------|
----------------------------|---------------------------9--|
----------------------------|------------------------------|
----------------------------|------------------------------|


  E  E   E  S S E   E  S S  E     E  E   E  S S E   E  S S  E   
-------------------------------|-------------------------------|
--x--x--12--x-x-x--12--x-x-----|--x--x--11--x-x-x--11--x-x-----|
-------------------------------|-------------------------------|
---------------------------11--|---------------------------11--|
-------------------------------|-------------------------------|
-------------------------------|-------------------------------|


  E  E   E  S S E   E  S S  E     E  E   E  S S E   E  S S E   
--------12---------12----------|------------------------------|
--x--x------x-x-x------x-x-----|--x--x--12--x-x-x--12--x-x----|
-------------------------------|------------------------------|
---------------------------11--|---------------------------9--|
-------------------------------|------------------------------|
-------------------------------|------------------------------|


  E  E   E  S S E   E  S S  E     E  E   E  S S E   E  S S  E   
-------------------------------|-------------------------------|
--x--x--12--x-x-x--12--x-x-----|--x--x--11--x-x-x--11--x-x-----|
-------------------------------|-------------------------------|
---------------------------11--|---------------------------11--|
-------------------------------|-------------------------------|
-------------------------------|-------------------------------|


   E  E  E   E  E  E   Q       Q    Q    E   E   E  E   
----------------------------|--7----0----0-------------|
--12--x--x--11--x--x--11----|--5----5----5s--7s--5--4--|
----------------------------|-----------------------4--|
----------------------------|--------------------------|
----------------------------|--------------------------|
----------------------------|--------------------------|


  E  E  Q    E  E  Q       Q    Q    E  E  Q       Q    Q    E  E  Q     
-----7------------------|-----------------------|-----------------------|
--L--4--4----4--5--4----|-----------------------|-----------------------|
--L-----4----4--4--4----|--6----6----6--4--6----|--6----6----6--4--6----|
------------------------|--4----4----4--4--4----|--4----4----4--4--4----|
------------------------|-----------------------|-----------------------|
------------------------|-----------------------|-----------------------|


  Q    Q    E   E   E  E     E  E  Q    E  E  Q       Q    Q    E  E  Q     
--7----0----0-------------|-----7------------------|-----------------------|
--5----5----5s--7s--5--4--|--L--4--4----4--5--4----|-----------------------|
-----------------------4--|--L-----4----4--4--4----|--6----6----6--4--6----|
--------------------------|------------------------|--4----4----4--4--4----|
--------------------------|------------------------|-----------------------|
--------------------------|------------------------|-----------------------|


  Q    Q    E  E  Q       Q    Q    E   E   E  E     E  E  Q    E  E  Q     
-----------------------|--7----0----0-------------|-----7------------------|
-----------------------|--5----5----5s--7s--5--4--|--L--4--4----4--5--4----|
--6----6----6--4--6----|-----------------------4--|--L-----4----4--4--4----|
--4----4----4--4--4----|--------------------------|------------------------|
-----------------------|--------------------------|------------------------|
-----------------------|--------------------------|------------------------|


  Q    Q    E  E  Q       Q    Q    E  E  Q       Q    Q    E   E   E  E   
-----------------------|-----------------------|--7----0----0-------------|
-----------------------|-----------------------|--5----5----5s--7s--5--4--|
--6----6----6--4--6----|--6----6----6--4--6----|-----------------------4--|
--4----4----4--4--4----|--4----4----4--4--4----|--------------------------|
-----------------------|-----------------------|--------------------------|
-----------------------|-----------------------|--------------------------|


  E  E  Q    E  E  Q       Q    Q    E  E  Q       Q    Q    E  E  E  E   
-----7------------------|-----------------------|------------------------|
--L--4--4----4--5--4----|-----------------------|---------------------4--|
--L-----4----4--4--4----|--6----6----6--4--6----|--6----6----6--4--6--4--|
------------------------|--4----4----4--4--4----|--4----4----4--4--4-----|
------------------------|-----------------------|------------------------|
------------------------|-----------------------|------------------------|


  Q    Q    E   E   E  E     E  E  Q    E  E  Q       W                 
--7----0----0-------------|-----7------------------|-------------------|
--5----5----5s--7s--5--4--|--L--4--4----4--5--4----|-------------------|
-----------------------4--|--L-----4----4--4--4----|--6----------------|
--------------------------|------------------------|--4----------------|
--------------------------|------------------------|-------------------|
--------------------------|------------------------|-------------------|


  W                   W                  
-------------------|-------------------||
-------------------|-------------------||
--L----------------|--L----------------||
--L----------------|--L----------------||
-------------------|-------------------||
-------------------|-------------------||




Duration Legend
---------------
W - whole
H - half
Q - quarter
E - 8th
S - 16th
T - 32nd
X - 64th
. - note dotted
|-n-|  - n-tuplets


Tablature Legend
----------------
L - tied note
x - dead note
g - grace note
(n) - ghost note
> - accentuded note
NH - natural harmonic
AH - artificial harmonic
TH - tapped harmonic
SH - semi harmonic
PH - pitch harmonic
h - hammer on
p - pull off
b - bend
br - bendRelease
pb - preBend
pbr - preBendRelease
brb - bendReleaseBend
\n/ - tremolo bar dip
\n - tremolo bar dive
-/n - tremolo bar Release up
/n\ - tremolo bar inverted dip
/n - tremolo bar return
-\n - tremolo bar Release down
S - shift slide
s - legato slide
/ -  slide into from below or out of upwards
\ -  slide into from above or out of downwards
~ - vibrato
W - wide vibrato
tr - trill
TP - tremolo picking
T - tapping
S - slap
P - pop
< - fade in
^ - brush up
v - brush down
comments
We did not receive enough feedback on this tab! Please rate:
print report bad tab
1 2 3 4 5
1 comment total.
0 reply
oisbush9 wrote on July 14 2014, 11:46 am

extremely confusing tab for an easy enough tune

I want to post or [tab]
guest
You may want to rate the tab now too:
select rating
Please do not post tabs as comments. Select "correction" instead!