Oops, an error
Loading. Please wait.

Drops Of Jupiter Tab

69,379 views 90 this week
3 commentsread comments
1 2 3 4 5
accurate
x 14
Autoscroll
+/-
esc
set tempo
stop
Difficulty
Tuning
novice
D A D G B E
WARNING: You are trying to view
                                    content from Ultimate-Guitar.com
                                    in an unauthorized application,
                                    which is prohibited.

                                    Please use an official Ultimate
                                    Guitar Tabs application for iPhone,
                                    iPad or Android to access legitimate
                                    chords, guitar, bass, and drum tabs
                                    from Ultimate-Guitar.com database.

                                    Type "ultimate guitar tabs" in Apple
                                    App Store's or Android Market's
                                    search to find the application.
Drops of Jupiter: Train (Boyce Avenue Cover)
Tabs by J.Sword

This is my first tab and this is the right way to play this song. There are certain 
patterns after each verse that transitions into the chorus so listen to the song and you 
be able to get it with practice. Good Luck!

Tuning: Double Drop D
Capo: 3rd fret

Intro & 1st Verse

D|-0----0--0----x----x--x-------------------------------------|
B|-0----0--0----3----3--3----3-------3--3--3--3----3--3-------|
G|-4----4--4h5--2----2--2h4--0h2(1st)0--0--0--0----0--0-------|  X4
D|-0----0--0-----------------0h2(2nd)0--0--0--0h2--2--0-------|
A|-x----x--x-----------------3-------3--3--3--3----3--3-------|
D|-5----5--5--------------------------------------------------|

Chorus
(Listen to the song and strum this)

D|--0---0---0---0---0---0---0---0---0---|
B|--3---3---3---3---0---3---3---3---3---|
G|--2---0---3---0---0---2---0---3---0---|
D|--0---0---3---0---0---0---0---3---0---|
A|--0---2---0---3---0---0---2---0---3---|
D|--0---0---0---0---5---0---0---0---0---|

Verse 2 & Verse 3 (Strum)


D|-0----0--0----x----x--x------------------------|
B|-0----0--0----3----3--3----3---------3---------|
G|-4----4--4h5--2----2--2h4--0h2(1st)--0h2(1st)--|
D|-0----0--0-----------------0h2(2nd)--0h2(2nd)--|
A|-x----x--x-----------------3---------3---------|
D|-5----5--5-------------------------------------|

Verse 1

Now that she's back in the atmosphere
With drops of jupiter in her hair, hey, hey
She acts like summer and walks like rain
Reminds me that there's time to change, hey, hey
Since the return from her stay on the moon
She listens like spring and she talks like june, hey, hey

Chorus

Tell me did you sail across the sun
Did you make it to the milky way to see the lights all faded
And that heaven is overrated

Tell me, did you fall for a shooting star
One without a permanent scar
And did you miss me while you were looking at yourself out there

Verse 2

Now that she's back from that soul vacation
Tracing her way through the constellation, hey, hey
She checks out mozart while she does tae-bo
Reminds me that there's time to grow, hey, hey

Now that she's back in the atmosphere
I'm afraid that she might think of me as plain ol' jane
Told a story about a man who is too afraid to fly so he never did land

Chorus

Tell me did the wind sweep you off your feet
Did you finally get the chance to dance along the light of day
And head back to the milky way
And tell me, did venus blow your mind
Was it everything you wanted to find
And did you miss me while you were looking for yourself out there

Verse 3

Can you imagine no love, pride, deep-fried chicken
Your best friend always sticking up for you even when I know you're wrong
Can you imagine no first dance, freeze dried romance five-hour phone
Conversation
The best soy latte that you ever had . . . and me

Chorus

Tell me did the wind sweep you off your feet
Did you finally get the chance to dance along the light of day
And head back toward the milky way

Tell me did you sail across the sun
Did you make it to the milky way to see the lights all faded
And that heaven is overrated

Tell me, did you fall for a shooting star
One without a permanent scar
And did you miss me while you were looking at yourself out there
comments
print report bad tab
3 comments total.
+1 reply
droid wrote on March 14 2013, 11:30 pm

D|--0---0---0---0---0---0---0---0---0---|
B|--3---3---3---3---0---3---3---3---3---|
G|--2---0---3---0---0---2---0---3---0---|
D|--0---0---3---0---0---0---0---3---0---|
A|--0---2---0---3---0---0---2---0---3---|
D|--0---0---0---0---5---0---0---0---0---|


should be

D|--0---0---0---0---0---0---0---0---0---|
B|--3---3---3---3---0---3---3---2---3---|
G|--2---0---3---0---0---2---0---2---0---|
D|--0---0---3---0---0---0---0---2---0---|
A|--0---2---0---3---0---0---2---0---3---|
D|--0---0---0---0---5---0---0---0---0---|

0 reply
bkohl93 wrote on April 28 2013, 02:54 pm

I can't get this tuning down. Are you sure it's double d? I tried double d and standard both but i can't get it to sound right. Boyce Avenue has some sort of weird tuning that I can never nail.

0 reply
jfry94 wrote on June 14 2014, 01:24 am

Disagree with the chorus. Should be:

D|--0---0---0---0---x---0---0---0---0---0---0---0---|
B|--3---3---2---3---1---0---3---3---2---3---1---1---|
G|--2---0---2---0---0---0---2---0---2---0---2---0---|
D|--0---0---2---0---2---0---0---0---2---0---2---2---|
A|--0---2---0---3---3---0---0---2---0---3---0---3---|
D|--0---0---0---0---0---5---0---0---0---0---0---0---|

Not 100% right, but something similar to this if you listen & watch fingers. Every other chord is a lead-in (except the last two of the progression)

I want to post or [tab]
guest
You may want to rate the tab now too:
select rating
Please do not post tabs as comments. Select "correction" instead!