Oops, an error
Loading. Please wait.

Rolling In The Deep Tab

ver2
ver2

Whole song

Interactive

More versions @911Tabs.com
40,061 views 87 this week
1 commentread comment
1 2 3 4 5
excellent!
x 6
Autoscroll
+/-
esc
set tempo
stop
Contributor
Hey! There's an official Ultimate Guitar app which is ideal
for learning songs when you're away from computer. Get the app
WARNING: You are trying to view
                                    content from Ultimate-Guitar.com
                                    in an unauthorized application,
                                    which is prohibited.

                                    Please use an official Ultimate
                                    Guitar Tabs application for iPhone,
                                    iPad or Android to access legitimate
                                    chords, guitar, bass, and drum tabs
                                    from Ultimate-Guitar.com database.

                                    Type "ultimate guitar tabs" in Apple
                                    App Store's or Android Market's
                                    search to find the application.
Artist    : Adele
Song      : Rolling in the Deep (Boyce Avenue acoustic cover)
Tabbed By : Ketan (ketan.gupta50@yahoo.co.in)

[INTRO]
e|---------------------------------------------------------------------------|
B|-------0--------3--------0--------3----------------------------------------|
G|-----0--------2--------0--------0---0--------------------------------------|
D|---2--------0--------2--------4-------4------------------------------------|
A|----------2--------3--------5----------------------------------------------|
E|-0-------------------------------------------------------------------------|

e|---------------------------------------------------------------------------|
B|-------0--------3--------0--------3----------------------------------------|
G|-----0--------2--------0--------0---0-----------------9-9-9-9-9-9-9-9------|
D|---2--------0--------2--------4-------4----2----------9-9-9-9-9-9-9-9------|
A|----------2--------3--------5--------------2----------7-7-7-7-7-7-7-7------|
E|-0-----------------------------------------0-------------------------------|

[VERSE 1]
e|---------------------------------------------------------------------------|
B|---------------------------------------------------------------------------|
G|-9-9-9-9-9-9-9-9-9--4-4-4-4-4-4-4-4-4--7-7-7-7-7-7-7-7-7--4-4-4-4--7-7-7-7-|
D|-9-9-9-9-9-9-9-9-9--4-4-4-4-4-4-4-4-4--7-7-7-7-7-7-7-7-7--4-4-4-4--7-7-7-7-| x4
A|-7-7-7-7-7-7-7-7-7--2-2-2-2-2-2-2-2-2--5-5-5-5-5-5-5-5-5--2-2-2-2--5-5-5-5-|
E|---------------------------------------------------------------------------|

[PRE-CHORUS]
Guitar 1
e|-0-0-0-0-0-0-0-0--2-2-2-2-2-2-2-2--2-2-2-2-2-2-2-2--0-0-0-0-0-0-0-0--------|
B|-1-1-1-1-1-1-1-1--3-3-3-3-3-3-3-3--3-3-3-3-3-3-3-3--1-1-1-1-1-1-1-1--------|
G|-0-0-0-0-0-0-0-0--2-2-2-2-2-2-2-2--4-4-4-4-4-4-4-4--0-0-0-0-0-0-0-0--------|
D|-2-2-2-2-2-2-2-2--0-0-0-0-0-0-0-0--4-4-4-4-4-4-4-4--2-2-2-2-2-2-2-2--------|
A|-3-3-3-3-3-3-3-3-------------------2-2-2-2-2-2-2-2--3-3-3-3-3-3-3-3--------|
E|---------------------------------------------------------------------------|

Guitar 2
e|---------------------------------------------------------------------------|
B|-8----------------7----3----------------------------3---5------------------|
G|-----------------------------------4---------------------------------------|
D|---------------------------------------------------------------------------|
A|---------------------------------------------------------------------------|
E|---------------------------------------------------------------------------|

Guitar 1
e|-0-0-0-0-0-0-0-0--2-2-2-2-2-2-2-2--2-2-2-2-2-2-2-2--2-2-2-2-2-2-2-2--------|
B|-1-1-1-1-1-1-1-1--3-3-3-3-3-3-3-3--3-3-3-3-3-3-3-3--4-4-4-4-4-4-4-4--------|
G|-0-0-0-0-0-0-0-0--2-2-2-2-2-2-2-2--4-4-4-4-4-4-4-4--4-4-4-4-4-4-4-4--------|
D|-2-2-2-2-2-2-2-2--0-0-0-0-0-0-0-0--4-4-4-4-4-4-4-4--4-4-4-4-4-4-4-4--------|
A|-3-3-3-3-3-3-3-3-------------------2-2-2-2-2-2-2-2--2-2-2-2-2-2-2-2--------|
E|---------------------------------------------------------------------------|

Guitar 2
e|---------------------------------------------------------------------------|
B|-8----------------7-----3----------5-----7----------8--------10------------|
G|---------------------------------------------------------------------------|
D|---------------------------------------------------------------------------|
A|---------------------------------------------------------------------------|
E|---------------------------------------------------------------------------|


[CHORUS]

Guitar 1
e|-0-0-0-0-0-0-0-0--2-2-2-2-2-2-2-2--0-0-0-0-0-0-0-0--0-0-0-0--2-2-2-2-------|
B|-0-0-0-0-0-0-0-0--3-3-3-3-3-3-3-3--1-1-1-1-1-1-1-1--1-1-1-1--3-3-3-3-------|
G|-0-0-0-0-0-0-0-0--2-2-2-2-2-2-2-2--0-0-0-0-0-0-0-0--0-0-0-0--2-2-2-2-------| x2
D|-2-2-2-2-2-2-2-2--0-0-0-0-0-0-0-0--2-2-2-2-2-2-2-2--2-2-2-2--0-0-0-0-------|
A|-2-2-2-2-2-2-2-2-------------------3-3-3-3-3-3-3-3--3-3-3-3----------------|
E|-0-0-0-0-0-0-0-0-----------------------------------------------------------|

Guitar 2
e|---------------------------------------------------------------------------|
B|-7---8---7---8----7---8---7---8----7---8---7---8----7---8----7---8---------|
G|---7---7---7---7----7---7---7---7----7---7---7---7----7---7----7---7-------| x2
D|---------------------------------------------------------------------------|
A|---------------------------------------------------------------------------|
E|---------------------------------------------------------------------------|


[VERSE 2]

Guitar 1
e|---------------------------------------------------------------------------|
B|---------------------------------------------------------------------------|
G|-9-9-9-9-9-9-9-9-9--4-4-4-4-4-4-4-4-4--7-7-7-7-7-7-7-7-7--4-4-4-4--7-7-7-7-|
D|-9-9-9-9-9-9-9-9-9--4-4-4-4-4-4-4-4-4--7-7-7-7-7-7-7-7-7--4-4-4-4--7-7-7-7-| x2
A|-7-7-7-7-7-7-7-7-7--2-2-2-2-2-2-2-2-2--5-5-5-5-5-5-5-5-5--2-2-2-2--5-5-5-5-|
E|---------------------------------------------------------------------------|

Guitar 2
e|---------------------------------------------------------------------------|
B|-------------------------------------------------------0--3/5--------------|
G|---------------------------------------------------------------------------|
D|---------------------------------------------------------------------------|
A|---------------------------------------------------------------------------|
E|---------------------------------------------------------------------------|


[PRE-CHORUS]

Guitar 1
e|-0-0-0-0-0-0-0-0--2-2-2-2-2-2-2-2--2-2-2-2-2-2-2-2--0-0-0-0-0-0-0-0--------|
B|-1-1-1-1-1-1-1-1--3-3-3-3-3-3-3-3--3-3-3-3-3-3-3-3--1-1-1-1-1-1-1-1--------|
G|-0-0-0-0-0-0-0-0--2-2-2-2-2-2-2-2--4-4-4-4-4-4-4-4--0-0-0-0-0-0-0-0--------|
D|-2-2-2-2-2-2-2-2--0-0-0-0-0-0-0-0--4-4-4-4-4-4-4-4--2-2-2-2-2-2-2-2--------|
A|-3-3-3-3-3-3-3-3-------------------2-2-2-2-2-2-2-2--3-3-3-3-3-3-3-3--------|
E|---------------------------------------------------------------------------|

Guitar 2
e|---------------------------------------------------------------------------|
B|-8----------------7----3----------------------------3---5------------------|
G|-----------------------------------4---------------------------------------|
D|---------------------------------------------------------------------------|
A|---------------------------------------------------------------------------|
E|---------------------------------------------------------------------------|

Guitar 1
e|-0-0-0-0-0-0-0-0--2-2-2-2-2-2-2-2--2-2-2-2-2-2-2-2--2-2-2-2-2-2-2-2--------|
B|-1-1-1-1-1-1-1-1--3-3-3-3-3-3-3-3--3-3-3-3-3-3-3-3--4-4-4-4-4-4-4-4--------|
G|-0-0-0-0-0-0-0-0--2-2-2-2-2-2-2-2--4-4-4-4-4-4-4-4--4-4-4-4-4-4-4-4--------|
D|-2-2-2-2-2-2-2-2--0-0-0-0-0-0-0-0--4-4-4-4-4-4-4-4--4-4-4-4-4-4-4-4--------|
A|-3-3-3-3-3-3-3-3-------------------2-2-2-2-2-2-2-2--2-2-2-2-2-2-2-2--------|
E|---------------------------------------------------------------------------|

Guitar 2
e|---------------------------------------------------------------------------|
B|-8----------------7-----3----------5-----7----------8--------10------------|
G|---------------------------------------------------------------------------|
D|---------------------------------------------------------------------------|
A|---------------------------------------------------------------------------|
E|---------------------------------------------------------------------------|


[CHORUS]

Guitar 1
e|-0-0-0-0-0-0-0-0--2-2-2-2-2-2-2-2--0-0-0-0-0-0-0-0--0-0-0-0--2-2-2-2-------|
B|-0-0-0-0-0-0-0-0--3-3-3-3-3-3-3-3--1-1-1-1-1-1-1-1--1-1-1-1--3-3-3-3-------|
G|-0-0-0-0-0-0-0-0--2-2-2-2-2-2-2-2--0-0-0-0-0-0-0-0--0-0-0-0--2-2-2-2-------| x2
D|-2-2-2-2-2-2-2-2--0-0-0-0-0-0-0-0--2-2-2-2-2-2-2-2--2-2-2-2--0-0-0-0-------|
A|-2-2-2-2-2-2-2-2-------------------3-3-3-3-3-3-3-3--3-3-3-3----------------|
E|-0-0-0-0-0-0-0-0-----------------------------------------------------------|

Guitar 2
e|---------------------------------------------------------------------------|
B|-7---8---7---8----7---8---7---8----7---8---7---8----7---8----7---8---------|
G|---7---7---7---7----7---7---7---7----7---7---7---7----7---7----7---7-------| x2
D|---------------------------------------------------------------------------|
A|---------------------------------------------------------------------------|
E|---------------------------------------------------------------------------|

Guitar 1
e|-0-0-0-0-0-0-0-0--2-2-2-2-2-2-2-2--0-0-0-0-0-0-0-0--2-2-2-2-2-2-2-2--------|
B|-1-1-1-1-1-1-1-1--3-3-3-3-3-3-3-3--0-0-0-0-0-0-0-0--3-3-3-3-3-3-3-3--------|
G|-0-0-0-0-0-0-0-0--2-2-2-2-2-2-2-2--0-0-0-0-0-0-0-0--2-2-2-2-2-2-2-2--------|
D|-2-2-2-2-2-2-2-2--0-0-0-0-0-0-0-0--2-2-2-2-2-2-2-2--0-0-0-0-0-0-0-0--------|
A|-3-3-3-3-3-3-3-3-------------------2-2-2-2-2-2-2-2-------------------------|
E|---------------------------------------------------------------------------|

Guitar 2
e|---------------------------------------------------------------------------|
B|-10--12--10--12---10--12--10--12---7---8---10--8----7---8---10--8----------|
G|---9---9---9---9----9---9---9---9----7---7---7---7----7---7---7---7--------|
D|---------------------------------------------------------------------------|
A|---------------------------------------------------------------------------|
E|---------------------------------------------------------------------------|

Guitar 1
e|-0-0-0-0-0-0-0-0--0-0-0-0-0-0-0-0--2-2-2-2-2-2-2-2--2-2-2-2-2-2-2-2--------|
B|-1-1-1-1-1-1-1-1--1-1-1-1-1-1-1-1--3-3-3-3-3-3-3-3--3-3-3-3-3-3-3-3--------|
G|-0-0-0-0-0-0-0-0--0-0-0-0-0-0-0-0--2-2-2-2-2-2-2-2--2-2-2-2-2-2-2-2--------|
D|-2-2-2-2-2-2-2-2--2-2-2-2-2-2-2-2--0-0-0-0-0-0-0-0--0-0-0-0-0-0-0-0--------|
A|-3-3-3-3-3-3-3-3--3-3-3-3-3-3-3-3------------------------------------------|
E|---------------------------------------------------------------------------|

e|---------------------------------------------------------------------------|
B|-10--12--10--12---10--12--10--12---8---10--8---10---8---10--8---7----------|
G|---9---9---9---9----9---9---9---9----7---7---7---7----7---7---7---7--------|
D|---------------------------------------------------------------------------|
A|---------------------------------------------------------------------------|
E|---------------------------------------------------------------------------|


[VERSE 3] (Throw your soul...)
Guitar 2
e|---------------------------------------------------------------------------|
B|---------------------------------------------------------------------------|
G|--9------------------------------------------------------------------------|
D|---------------------------------------------------------------------------|
A|---------------------------------------------------------------------------|
E|---------------------------------------------------------------------------|

Guitar 1 (Turn my sorrow...)
e|---------------------------------------------------------------------------|
B|---------------------------------------------------------------------------|
G|--7/9----------------------------------------------------------------------|
D|---------------------------------------------------------------------------|
A|---------------------------------------------------------------------------|
E|---------------------------------------------------------------------------|

Guitar 2 (Turn my sorrow...)
e|--0------------------------------------------------------------------------|
B|--0------------------------------------------------------------------------|
G|--0------------------------------------------------------------------------|
D|--2------------------------------------------------------------------------|
A|--2------------------------------------------------------------------------|
E|--0------------------------------------------------------------------------|

[Bridge]
Guitar 1
e|---------------------------------------------------------------------------|
B|---------------------------------------------------------------------------|
G|-9-9-9-9-9-9-9-9--7-7-7-7-7-7-7-7--5-5-5-5-5-5-5-5--5-5-5-5-7-7-7-7--------|
D|-9-9-9-9-9-9-9-9--7-7-7-7-7-7-7-7--5-5-5-5-5-5-5-5--5-5-5-5-7-7-7-7--------|
A|-7-7-7-7-7-7-7-7--5-5-5-5-5-5-5-5--3-3-3-3-3-3-3-3--3-3-3-3-5-5-5-5--------|
E|---------------------------------------------------------------------------|

Guitar 2
e|---------------------------------------------------------------------------|
B|-8----------------7-------3-------------------------3-------5--------------|
G|-----------------------------------4---------------------------------------|
D|---------------------------------------------------------------------------|
A|---------------------------------------------------------------------------|
E|---------------------------------------------------------------------------|

e|---------------------------------------------------------------------------|
B|---------------------------------------------------------------------------|
G|-9-9-9-9-9-9-9-9--7-7-7-7-7-7-7-7--5-5-5-5-5-5-5-5--5-5-5-5-7-7-7-7--------|
D|-9-9-9-9-9-9-9-9--7-7-7-7-7-7-7-7--5-5-5-5-5-5-5-5--5-5-5-5-7-7-7-7--------|
A|-7-7-7-7-7-7-7-7--5-5-5-5-5-5-5-5--3-3-3-3-3-3-3-3--3-3-3-3-5-5-5-5--------|
E|---------------------------------------------------------------------------|

e|---------------------------------------------------------------------------|
B|-8----------------7-------3--------5-------7--------8-------10-------------|
G|---------------------------------------------------------------------------|
D|---------------------------------------------------------------------------|
A|---------------------------------------------------------------------------|
E|---------------------------------------------------------------------------|

[CHORUS]

Guitar 1
e|-0-0-0-0-0-0-0-0--2-2-2-2-2-2-2-2--0-0-0-0-0-0-0-0--0-0-0-0--2-2-2-2-------|
B|-0-0-0-0-0-0-0-0--3-3-3-3-3-3-3-3--1-1-1-1-1-1-1-1--1-1-1-1--3-3-3-3-------|
G|-0-0-0-0-0-0-0-0--2-2-2-2-2-2-2-2--0-0-0-0-0-0-0-0--0-0-0-0--2-2-2-2-------| x2
D|-2-2-2-2-2-2-2-2--0-0-0-0-0-0-0-0--2-2-2-2-2-2-2-2--2-2-2-2--0-0-0-0-------|
A|-2-2-2-2-2-2-2-2-------------------3-3-3-3-3-3-3-3--3-3-3-3----------------|
E|-0-0-0-0-0-0-0-0-----------------------------------------------------------|

Guitar 2
e|---------------------------------------------------------------------------|
B|-7---8---7---8----7---8---7---8----7---8---7---8----7---8----7---8---------|
G|---7---7---7---7----7---7---7---7----7---7---7---7----7---7----7---7-------| x2
D|---------------------------------------------------------------------------|
A|---------------------------------------------------------------------------|
E|---------------------------------------------------------------------------|

Guitar 1
e|-0-0-0-0-0-0-0-0--2-2-2-2-2-2-2-2--0-0-0-0-0-0-0-0--0-0-0-0--2-2-2-2-------|
B|-0-0-0-0-0-0-0-0--3-3-3-3-3-3-3-3--1-1-1-1-1-1-1-1--1-1-1-1--3-3-3-3-------|
G|-0-0-0-0-0-0-0-0--2-2-2-2-2-2-2-2--0-0-0-0-0-0-0-0--0-0-0-0--2-2-2-2-------| 
D|-2-2-2-2-2-2-2-2--0-0-0-0-0-0-0-0--2-2-2-2-2-2-2-2--2-2-2-2--0-0-0-0-------|
A|-2-2-2-2-2-2-2-2-------------------3-3-3-3-3-3-3-3--3-3-3-3----------------|
E|-0-0-0-0-0-0-0-0-----------------------------------------------------------|

Guitar 2
e|---------------------------------------------------------------------------|
B|-10--12--10--12---10--12--10--12---7---8---10--8----7---8---10--8----------|
G|---9---9---9---9----9---9---9---9----7---7---7---7----7---7---7---7--------|
D|---------------------------------------------------------------------------|
A|---------------------------------------------------------------------------|
E|---------------------------------------------------------------------------|

Guitar 1
e|-0-0-0-0-0-0-0-0--2-2-2-2-2-2-2-2--0-0-0-0-0-0-0-0--0-0-0-0--2-2-2-2-------|
B|-0-0-0-0-0-0-0-0--3-3-3-3-3-3-3-3--1-1-1-1-1-1-1-1--1-1-1-1--3-3-3-3-------|
G|-0-0-0-0-0-0-0-0--2-2-2-2-2-2-2-2--0-0-0-0-0-0-0-0--0-0-0-0--2-2-2-2-------| 
D|-2-2-2-2-2-2-2-2--0-0-0-0-0-0-0-0--2-2-2-2-2-2-2-2--2-2-2-2--0-0-0-0-------|
A|-2-2-2-2-2-2-2-2-------------------3-3-3-3-3-3-3-3--3-3-3-3----------------|
E|-0-0-0-0-0-0-0-0-----------------------------------------------------------|

e|---------------------------------------------------------------------------|
B|-10--12--10--12---10--12--10--12---8---10--8---10---8---10--8---7----------|
G|---9---9---9---9----9---9---9---9----7---7---7---7----7---7---7---7--------|
D|---------------------------------------------------------------------------|
A|---------------------------------------------------------------------------|
E|---------------------------------------------------------------------------|

Guitar 1
e|-0-------------------------------------------------------------------------|
B|-0-------------------------------------------------------------------------|
G|-0-------------------------------------------------------------------------|
D|-2-------------------------------------------------------------------------|
A|-2-------------------------------------------------------------------------|
E|-0-------------------------------------------------------------------------|

Guitar 2
e|---------------------------------------------------------------------------|
B|---------------------------------------------------------------------------|
G|-9-------------------------------------------------------------------------|
D|---------------------------------------------------------------------------|
A|---------------------------------------------------------------------------|
E|---------------------------------------------------------------------------|
comments
print report bad tab
1 comment total.
0 reply
rstott24 wrote on March 31 2012, 09:17 pm

This tab is awesome!

One correction that I found is that the B string of Guitar one goes 8 10 8 7 8 10 8 7 rather than 8 10 8 10 8 10 8 7

I want to post or [tab]
guest
You may want to rate the tab now too:
select rating
Please do not post tabs as comments. Select "correction" instead!