Oops, an error
Loading. Please wait.

Boys Like Girls Tab

16,973 views 3 this week
4 commentsread comments
1 2 3 4 5
excellent!
x 1
add to favorites launch autoscroll
font size
0
reset
Autoscroll
+/-
esc
set tempo
stop
Contributor
Difficulty
intermediate
WARNING: You are trying to view
                                    content from Ultimate-Guitar.com
                                    in an unauthorized application,
                                    which is prohibited.

                                    Please use an official Ultimate
                                    Guitar Tabs application for iPhone,
                                    iPad or Android to access legitimate
                                    chords, guitar, bass, and drum tabs
                                    from Ultimate-Guitar.com database.

                                    Type "ultimate guitar tabs" in Apple
                                    App Store's or Android Market's
                                    search to find the application.
Boys Like Girls
Boys Like Girls
Track   Song
1       The Great Escape
2       Five Minutes To Midnight
3       Hero/Heroine
4       On Top Of The World
5       Thunder
6       Me You And My Medication
7       Up Against The Wall
8       Dance Hall Drug
9       Learning To Fall
10      Heels Over Head
11      Broken Man
12      Holiday

**I did NOT tab these songs. These are from other UG users whos tabs looked very good to 
I didn't see the album tabs up here so I decided to out them up. I want to thank the 
who actually did all the work in tabbing these.  Boys Like Girls are amazing. Enjoy the tabs!!!**


1-The Great Escape: tabbed by Unregistered

DADF#AD
Please Rate or IM me JesterSk8ter2004 if anything, this is new to me, so maybe some suggestions?

Intro (0:00-0:13)
D--------------------------------------------------------------------|
A---------14---------14----------14-------14-------------------------|
F#-----13----13---13----13-----13-------13----13---------------------|  x4
D---10----------9----------------------------------------------------|
A---------------------------12------10-------------------------------|
D--------------------------------------------------------------------|

Verse (0:13-0:32), (1:04-1:23)
D---0------------0---------------------------------------------------|
A---0------------0---------------------------------------------------|
F#--13---x16-----12---x16--------------------------------------------|  x3
D---12-----------0---------------------------------------------------|
A---12-----------9---------------------------------------------------|
D---0------------0---------------------------------------------------|


Pre-Chorus (0:32-0:37), (1:23-1:28------------------------------------|
D----x----------------------------------------------------------------|
A----x----------------------------------------------------------------|
F#---10---x24---------------------------------------------------------|
D----x----------------------------------------------------------------|
A----7----------------------------------------------------------------|
D----x----------------------------------------------------------------|


PAUSE  "Throw it away"

Chorus (0:38-0:56), (1:29-1:48),
D----00000000---00000000---00000000---00000000-----------------------|
A----00000000---00000000---00000000---00000000-----------------------|
F#---00000000---00000000---00000000---00000000-----------------------| x2
D----99999999---55555555---00000000---77777777-----------------------|
A----99999999---55555555---00000000---77777777-----------------------|
D----99999999---55555555---00000000---77777777-----------------------|

D----00000000---00000000---000000000---------------------------------|
A----00000000---00000000---000000000---------------------------------|
F#---00000000---00000000---000000000---------------------------------|
D----44444444---66666666---777777777---------------------------------|
A----44444444---66666666---777777777---------------------------------|
D----44444444---66666666---777777777---------------------------------|

Post Chorus (0:58-1:04)
D---0------------0---------------------------------------------------|
A---0------------0---------------------------------------------------|
F#--13---x16-----12---x16--------------------------------------------|
D---12-----------0---------------------------------------------------|
A---12-----------9---------------------------------------------------|
D---0------------0---------------------------------------------------|

Bridge A (yea, its wrong, dont yell) (1:49-2:01)
D---0------0------0-----0--------------------------------------------|
A---0------0------0-----0--------------------------------------------|
F#--0------0------0-----0--------------------------------------------|
D---7-x16--6-x16--7-x16-9-x16----------------------------------------|
A---7------6------7-----9--------------------------------------------|
D---7------6------7-----9--------------------------------------------|

Bridge B (2:02-2:14)
D--------------------------------------------------------------------|
A--------------------------------------------------------------------|
F#--14-14-14--12-12-12--10-10-10--14-14-14--15-15-15--17-17-17-------|
D---x--x--x---x--x--x---x--x--x---x--x--x---x--x--x---x--x--x--------|
A---11-11-11--9--9--9---7--7--7---11-11-11--12-12-12--14-14-14-------|
D--------------------------------------------------------------------|

D--------------------------------------------------------------------|
A--------------------------------------------------------------------|
F#--14-14-14--12-12-12--10-10-10--17-17-17--15-15-15--14-14-14-------|
D---x--x--x---x--x--x---x--x--x---x--x--x---x--x--x---x--x--x--------|
A---11-11-11--9--9--9---7--7--7---14-14-14--12-12-12--11-11-11-------|
D--------------------------------------------------------------------|

D--------------------------------------------------------------------|
A--------------------------------------------------------------------|
F#--14-14-14--12-12-12--10-10-10--14-14-14--15-15-15--17-17-17-------|
D---x--x--x---x--x--x---x--x--x---x--x--x---x--x--x---x--x--x--------|
A---11-11-11--9--9--9---7--7--7---11-11-11--12-12-12--14-14-14-------|
D--------------------------------------------------------------------|

D--------------------------------------------------------------------|
A--------------------------------------------------------------------|
F#--14-14-14--12-12-12--10-10-10--9-9-9------------------------------|
D---x--x--x---x--x--x---x--x--x---x-x-x------------------------------|
A---11-11-11--9--9--9---7--7--7---6-6-6------------------------------|
D--------------------------------------------------------------------|

Bridge C (on 2nd time, keep strumming the last chord) (2:14-2:27)
D---0----------0----------0----------0-------------------------------|
A---0----------0----------0----------0-------------------------------|
F#--0----------0----------0----------0-------------------------------| x2
D---9----------5----------0----------7-------------------------------|
A---9----------5----------0----------7-------------------------------|
D---9----------5----------0----------7-------------------------------|

Final Chorus (2:29-3:01)
D----00000000---00000000---00000000---00000000-----------------------|
A----00000000---00000000---00000000---00000000-----------------------|
F#---00000000---00000000---00000000---00000000-----------------------| x4
D----99999999---55555555---00000000---77777777-----------------------|
A----99999999---55555555---00000000---77777777-----------------------|
D----99999999---55555555---00000000---77777777-----------------------|

D----00000000---00000000---000000000---------------------------------|
A----00000000---00000000---000000000---------------------------------|
F#---00000000---00000000---000000000---------------------------------|
D----44444444---66666666---777777777---------------------------------|
A----44444444---66666666---777777777---------------------------------|
D----44444444---66666666---777777777---------------------------------|

Outro (3:01-3:28)
D--------------------------------------------------------------------|
A---------14---------14----------14-------14-------------------------|
F#-----13----13---13----13-----13-------13----13---------------------|  x7
D---10----------9----------------------------------------------------|
A---------------------------12------10-------------------------------|
D--------------------------------------------------------------------|

2-Five Minutes To Midnight: Tabbed by Barbossaboots

                 |This one has to have 2 people|
                   |or it sounds dumb 91% correct|

Pre-Intro
e-----------------------------------|
B-----------------------------------|
G---776677--776677--776677--776677--|
D---------66------66------66------66|
A-----------------------------------|
E-----------------------------------|

Intro
Guitar 1
e-----------------------------------|\----|
B-----------------------------------------| \
G---776677--776677--776677--776677--------|  \
D---------66------66------66------66| ----| X2
A-----------------------------------------| /
E-----------------------------------------|
Guitar 2
e-----------------------------------------------------------------|
B-----------------------------------------------------------------|
G--7777777777777777------------------9999999999999999-------------|
D--7777777777777777-7777777777777777-9999999999999999-5---9---7---| X1
A--5555555555555555-7777777777777777-7777777777777777-5---9---7---|
E-------------------5555555555555555------------------3~--7~--5~--|

Verse
e-----------------------------------------------------------------|
B-----------------------------------------------------------------|
G--7777777777777777------------------9999999999999999-777777777777|
D--7777777777777777-7777777777777777-9999999999999999-777777777777| X2
A--5555555555555555-7777777777777777-7777777777777777-555555555555|
E-------------------5555555555555555------------------------------|
Palm Mute********** **************** **************** ************

Pre-Chorus
e---------------------|\----|
B---------------------------| \
G-------9999-777777777------|  \
D--7777-9999-555555555| ----| X2
A--7777-7777-555555555------| /
E--5555---------------------|
 "You know you wanna...
Chorus
e-----------------------------------------------------------------|
B-----------------------------------------------------------------|
G--7777777777777777------------------9999999999999999-777777777777|
D--7777777777777777-7777777777777777-9999999999999999-777777777777| X2
A--5555555555555555-7777777777777777-7777777777777777-555555555555|
E-------------------5555555555555555------------------------------|
 "Turn it up. It's Five Minutes To Midnight...

Verse 2
Verse
e--------------------------------------------------------------------|
B--------------------------------------------------------------------|
G------------------------------------9999999999999999-777777777777---|
D--5----------------7777777777777777-9999999999999999-777777777777---| X2
A--5---------------7777777777777777-7777777777777777-555555555555----|
E--3----------------5555555555555555---------------------------------|
Palm Mute           **************** **************** ************
     "Like air...

Pre-Chorus
e---------------------|\----|
B---------------------------| \
G-------9999-777777777------|  \
D--7777-9999-555555555| ----| X2
A--7777-7777-555555555------| /
E--5555---------------------|
 "You know you wanna...
Chorus
e-----------------------------------------------------------------|
B-----------------------------------------------------------------|
G--7777777777777777------------------9999999999999999-777777777777|
D--7777777777777777-7777777777777777-9999999999999999-777777777777| X2
A--5555555555555555-7777777777777777-7777777777777777-555555555555|
E-------------------5555555555555555------------------------------|
 "Turn it up. It's Five Minutes To Midnight...

Riff
e-----------------------------------------------------------------|
B-----------------------------------------------------------------|
G--7777777777777777-----------------------------------------------|
D--7777777777777777-7777777777777777-9--9-7--9-5------------------|X2
A--5555555555555555-7777777777777777-9--9-7--7-5------------------|
E-------------------5555555555555555-7--7-5--5-3------------------|
 "And when the clock strikes 12...
e---------------------|\----|
B---------------------------| \
G--7-7-77-7-7-7777----------|  \
D--7-7-77-7-7-7777----| ----| X2
A---------------------------| /
E---------------------------|
Chorus
e-----------------------------------------------------------------|
B-----------------------------------------------------------------|
G--7777777777777777------------------9999999999999999-777777777777|
D--7777777777777777-7777777777777777-9999999999999999-777777777777| X2
A--5555555555555555-7777777777777777-7777777777777777-555555555555|
E-------------------5555555555555555------------------------------|
 "Turn it up. It's Five Minutes To Midnight...


3-Hero/Heroine: Tabbed by: guidenes

standard tuning

intro
----0----0---|
--0----0-----|  its basically repeating, i lost count on that :)
-5-5--5-5----|
-------------|
-------------|
-------------|

verse
its too late baby......I got my hands......This is how I do
------------------------------------------------------------------|
------------------------------------------------------------------|
-55555555555555555555---------------------------------------------|
-55555555555555555555--555555555555555555--777777777777777777-----|
-33333333333333333333--555555555555555555--777777777777777777-----|
-----------------------333333333333333333--555555555555555555-----|

When I think about you
--------------------------------|
--------------------------------|
--------------------------------|  x2
333333333333333333--------------|
333333333333333333--------------|
111111111111111111--------------|

prechorus
      Cause you....    Now I'm running and screamin
--------------------------------------|
--------------------------------------| its difficult to explain this part
-55------------------55---------------| but the lyrics might help
-55-5-5----33-5-5----55-5------3------| and listen to song too
-33-5-5----33-5-5----33-5------3------|
----3-3----11-3-3-------3------1------|

chorus
i feel like a hero, and you are my hero...ine
--------------------------------------------------|
--------------------------------------------------|
55555---------------------------------------------|
55555---------55555---------------7777----3333----| strum is different
33333---------55555---------------7777----3333----|
--------------33333---------------5555----1111----|

repeats verse,prechorus, chorus

bridge
--------------------------------------------------------------------------|
--------------------------------------------------------------------------|
-55555555555555555555-----------------------------------------------------|
-55555555555555555555--555555555555555555--777777777777777777--33333333---|
-33333333333333333333--555555555555555555--777777777777777777--33333333---|
-----------------------333333333333333333--555555555555555555--11111111---|
      And I feel a weakness coming on
      It never felt so good to be so wrong
      Had my heart on lockdown
      And then you turned me around
      And I'm feeling like a newborn child
      Every time I get a chance to see you smile
      It's not complicated
      I was so jaded

prechorus
---------|
---------|
-5-------|     just 1 strum
-5-5-7-3-|
-3-5-7-3-|
---3-5-1-|

and back to chorus
and repeats bridge 2x

4-On Top Of The World: Tabbed by unitejeff

Intro

Gtr1
E|-----------------------------------------------------|
B|-----------------------------------------------------|
G|---------------------------------777777777777777-----|
D|-777777777777777-999999999999999-777777777777777(x2)-|
A|-777777777777777-777777777777777-555555555555555-----|
e|-555555555555555-000000000000000---------------------|

Gtr2(when Gtr1 plays D)
E|-----------------------------------------------------------999-101010-|
B|----------------------------------101010-999-101010-121212------------|
G|----------------------------------------------------------------------|
D|----------------------------------------------------------------------|
A|----------------------------------------------------------------------|
e|----------------------------------------------------------------------|


E|-999--------------|
B|-----121212--10---|
G|------------------|
D|------------------|
A|------------------|
e|------------------|

Verse

The palm-strumming pattern is a bit hard to explain

E|-----------------|
B|-----------------|
G|-----------------|
D|--------7--------|
A|-7-7777-7-7-7777-|
e|-5-5555-5-5-5555-|
   * **** * * ****

E|-------|
B|-------| (same for E and D. i wont bother to tab it out)
G|----5--|
D|-9--5--|
A|-7--7--|
e|-0-----|

Pre-Chorus

   E               F#m

E|--------2---0------------2-0-------|
B|----0---------0------0-------0-----|
G|--1---1---1--------2---2-------2---|
D|---------------------------------4-|
A|-----------------4-----------------|
e|-0---------------------------------|

Chorus is same with intro


Gtr1
E|-----------------------------------------------------|
B|-----------------------------------------------------|
G|---------------------------------777777777777777-----|
D|-777777777777777-999999999999999-777777777777777(x2)-|
A|-777777777777777-777777777777777-555555555555555-----|
e|-555555555555555-000000000000000---------------------|

Gtr2(when Gtr1 plays D)
E|-----------------------------------------------------------999-101010-|
B|----------------------------------101010-999-101010-121212------------|
G|----------------------------------------------------------------------|
D|----------------------------------------------------------------------|
A|----------------------------------------------------------------------|
e|----------------------------------------------------------------------|


E|-999--------------|
B|-----121212--10---|
G|------------------|
D|------------------|
A|------------------|
e|------------------|


Verse (palm mute until..2nd part of chorus..play  open chords instead of power chords)

Chorus

Bridge

  F#m         E            D
E|-------------------------00000000000000000000-|
B|-------------------------33333333333333333333-|
G|-------------------------22222222222222222222-|
D|-4444444444--2222222222--00000000000000000000-| X2
A|-4444444444--2222222222-----------------------|
e|-2222222222--0000000000-----------------------|

Chorus


5-Thunder: Tabbed by guidenes

today is........taking me....go............oh....
------------------------------------------------------------------------|
------------------------------------------------------------------------|
77777777777777----------------------------------------------------------|
77777777777777-5555555555555-9999999999999-7777777777777----------------|
55555555555555-5555555555555-9999999999999-7777777777777----------------|
---------------3333333333333-7777777777777-5555555555555----------------|

your voice.... soundtrack... unlike........ always be my thunder
------------------------------------------------------------------------|
------------------------------------------------------------------------|
77777777777777----------------------------------------------------------| x2
77777777777777-5555555555555-9999999999999-7777777777777----------------|
55555555555555-5555555555555-9999999999999-7777777777777----------------|
---------------3333333333333-7777777777777-5555555555555----------------|

so bring...... rain.......... bring on the thunder
-------------------------------------------------|
-------------------------------------------------|
-------------------------------------------------|
55555555555555-77777777777777--------------------|
55555555555555-77777777777777--------------------|
33333333333333-55555555555555--------------------|

Today is a winding road
Tell me where to start and tell me something I don't know
Whoa (whoa, whoa, whoa)
Today I'm on my own
I can't move a muscle and I can't pick up the phone
I don't know (I don't know, I don't know, I don't know)

And now I'm itching for the tall grass
And longing for the breeze
I need to step outside
Just to see if I can breathe
I gotta find a way out
Maybe theres a way out

------x-------x-------x------------------------|-----------|
------x-------x-------x------------------------|-----------|
77777-x-------x-------x------------------------|-7---------|
77777-x-55555-x-99999-x-7777777777555555555555-|-7---------| starts the chorus
55555-x-55555-x-99999-x-7777777777555555555555-|-5---------| by 1 strum
------x-33333-x-77777-x-5555555555333333333333-|-----------|

x = stops/hits (listen to song if u dun get it)

Yeah I'm walking on a tightrope
I'm wrapped up in vines
I think we'll make it out
But you just gotta give me time
Strike me down with lightning
Let me feel you in my veins
I wanna let you know how much I feel your pain


6-Me You And My Medication: tabbed by Unregistered

Drop D

Very Easy To Play. Enjoy!

/ \ - Slide

Beginning

E|-----12(Bunch of Times)------|
B|-----------------------------|
G|-----------------------------|
D|-----------------------------|
A|-----------------------------|
D|-----------------------------|
0:12 - 0:58

Chorus

E|-----------------------------------------------|
B|-----------------------------------------------|
G|-----------2-222-222222-22-2-222-222222--------|
D|-0000000---2-222-222222-22-2-222-222222--------|
A|-0000000---0-000-000000-00-0-000-000000--------|
D|-0000000---------------------------------------|
 |PM---------------------------------------------|

E|---------------------------------------------|
B|---------------------------------------------|
G|--6/x\6--------------------------------------|
D|--x/x\x-0-000-000000-00-0-000-000000-00------|
A|--4/5\4-0-000-000000-00-0-000-000000-00------|
D|--------0-000-000000-00-0-000-000000-00------|

E|--------------------------------------|
B|--------------------------------------|
G|----2-222-222222-22-2-222-222222------|
D|----2-222-222222-22-2-222-222222------|
A|----0-000-000000-00-0-000-000000------|
D|--------------------------------------|

E|---------------------------------------------|
B|---------------------------------------------|
G|--6/7\6--------------------------------------|
D|--x/x\x-0-000-000000-00-0-000-000000-00------|
A|--4/5\4-0-000-000000-00-0-000-000000-00------|
D|--------0-000-000000-00-0-000-000000-00------|

E|------------------------------12-(Start This Again)--|
B|-----------------------------------------------------|
G|-222-------------------------------------------------|
D|-222-(x16)-----222---------0~------------------------|
A|-000-----------222-(x16)---0~------------------------|
D|---------------222---------0~------------------------|
0:58 - 2:03

E|---------------------------------------------|
B|---------------------------------------------|
G|---------------------------------------------|
D|-2------4-------0----------------------------| (x2)
A|-2-(x8)-4-(x8)--0-(x16)----------------------|
D|-2------4-------0----------------------------|
 |PM-------------------------------------------|
2:03 - 2:16

E|--------------------------------------|
B|--------------------------------------|
G|----2-222-222222-22-2-222-222222------|
D|----2-222-222222-22-2-222-222222------|
A|----0-000-000000-00-0-000-000000------|
D|--------------------------------------|

E|---------------------------------------------|
B|---------------------------------------------|
G|--6/7\6--------------------------------------|
D|--x/x\x-0-000-000000-00-0-000-000000-00------|
A|--4/5\4-0-000-000000-00-0-000-000000-00------|
D|--------0-000-000000-00-0-000-000000-00------|

E|--------------------------------------|
B|--------------------------------------|
G|----2-222-222222-22-2-222-222222------|
D|----2-222-222222-22-2-222-222222------|
A|----0-000-000000-00-0-000-000000------|
D|--------------------------------------|

E|---------------------------------------------|
B|---------------------------------------------|
G|--6/7\6--------------------------------------|
D|--x/x\x-0-000-000000-00-0-000-000000-00------|
A|--4/5\4-0-000-000000-00-0-000-000000-00------|
D|--------0-000-000000-00-0-000-000000-00------|

E|-----------------------------------------------------|
B|-----------------------------------------------------|
G|-222-------------------------------------------------|
D|-222-(x16)-----222---------000-----------------------|
A|-000-----------222-(x16)---000-(x32)-----------------|
D|---------------222---------000-----------------------|
2:16 - 2:53

Bridge

E|---------------------------------------------------------------------------|
B|---------------------------------------------------------------------------|
G|-2222-222-222-2222-6666-666-666-6666-9999-9999-999-9\2222-2222-222-9\0-----|
D|-2222-222-222-2222-6666-666-666-6666-9999-9999-999-9\0000-0000-222-9\0-----|
A|-0000-000-000-0000-4444-444-444-4444-7777-7777-777-7\0000-0000-000-7\0-----|
D|---------------------------------------------------------------------------|
 |PM------------------------------------------------|  |---------------------|
2:53 - 3:05

E|-----------------------------------------------------------------|
B|-----------------------------------------------------------------|
G|-22222222222222-66666666666666-99999999-999-9\22222222-222-2-----|
D|-22222222222222-66666666666666-99999999-999-9\00000000-222-2-----|
A|-00000000000000-44444444444444-77777777-777-7\00000000-000-0-----|
D|-----------------------------------------------------------------|
                                         |PM-|          |PM-|
3:05 - 3:18

Post Bridge
                                                                     !
E|---0-----0--------0----0----0---0--0~---12-(Start This Again)------0~--|
B|--0-0---0-0------0----0-0--0-0-0-0-0~------------------------------0~--|
G|--------------1h2--1h2---------------------------------------------0~--|
D|-----------------------------------------------------------------------|
A|-----------------------------------------------------------------------|
D|-2----4-----0-------------2---4----------------------------------------|
3:18 - 3:33


E|--------------------------------------|
B|--------------------------------------|
G|----2-222-222222-22-2-222-222222------|
D|----2-222-222222-22-2-222-222222------|
A|----0-000-000000-00-0-000-000000------|
D|--------------------------------------|

E|---------------------------------------------|
B|---------------------------------------------|
G|--6/7\6--------------------------------------|
D|--x/x\x-0-000-000000-00-0-000-000000-00------|
A|--4/5\4-0-000-000000-00-0-000-000000-00------|
D|--------0-000-000000-00-0-000-000000-00------|

E|--------------------------------------|
B|--------------------------------------|
G|----2-222-222222-22-2-222-222222------|
D|----2-222-222222-22-2-222-222222------|
A|----0-000-000000-00-0-000-000000------|
D|--------------------------------------|

E|---------------------------------------------|
B|---------------------------------------------|
G|--6/7\6--------------------------------------|
D|--x/x\x-0-000-000000-00-0-000-000000-00------|
A|--4/5\4-0-000-000000-00-0-000-000000-00------|
D|--------0-000-000000-00-0-000-000000-00------|

E|---------------------------------------12-(Strum Until The End)----|
B|-------------------------------------------------------------------|
G|----222------------------------------------------------------------|
D|----222-(x16)-----222---------0~-----------------------------------|
A|----000-----------222-(x16)---0~-----------------------------------|
D|------------------222---------0~-----------------------------------|
3:33 - 4:30

7- Up Against The Wall: Tabbed by Drop D

Very Easy To Play. Enjoy!

/ \ - Slide

Beginning

E|-----12(Bunch of Times)------|
B|-----------------------------|
G|-----------------------------|
D|-----------------------------|
A|-----------------------------|
D|-----------------------------|
0:12 - 0:58

Chorus

E|-----------------------------------------------|
B|-----------------------------------------------|
G|-----------2-222-222222-22-2-222-222222--------|
D|-0000000---2-222-222222-22-2-222-222222--------|
A|-0000000---0-000-000000-00-0-000-000000--------|
D|-0000000---------------------------------------|
 |PM---------------------------------------------|

E|---------------------------------------------|
B|---------------------------------------------|
G|--6/x\6--------------------------------------|
D|--x/x\x-0-000-000000-00-0-000-000000-00------|
A|--4/5\4-0-000-000000-00-0-000-000000-00------|
D|--------0-000-000000-00-0-000-000000-00------|

E|--------------------------------------|
B|--------------------------------------|
G|----2-222-222222-22-2-222-222222------|
D|----2-222-222222-22-2-222-222222------|
A|----0-000-000000-00-0-000-000000------|
D|--------------------------------------|

E|---------------------------------------------|
B|---------------------------------------------|
G|--6/7\6--------------------------------------|
D|--x/x\x-0-000-000000-00-0-000-000000-00------|
A|--4/5\4-0-000-000000-00-0-000-000000-00------|
D|--------0-000-000000-00-0-000-000000-00------|

E|------------------------------12-(Start This Again)--|
B|-----------------------------------------------------|
G|-222-------------------------------------------------|
D|-222-(x16)-----222---------0~------------------------|
A|-000-----------222-(x16)---0~------------------------|
D|---------------222---------0~------------------------|
0:58 - 2:03

E|---------------------------------------------|
B|---------------------------------------------|
G|---------------------------------------------|
D|-2------4-------0----------------------------| (x2)
A|-2-(x8)-4-(x8)--0-(x16)----------------------|
D|-2------4-------0----------------------------|
 |PM-------------------------------------------|
2:03 - 2:16

E|--------------------------------------|
B|--------------------------------------|
G|----2-222-222222-22-2-222-222222------|
D|----2-222-222222-22-2-222-222222------|
A|----0-000-000000-00-0-000-000000------|
D|--------------------------------------|

E|---------------------------------------------|
B|---------------------------------------------|
G|--6/7\6--------------------------------------|
D|--x/x\x-0-000-000000-00-0-000-000000-00------|
A|--4/5\4-0-000-000000-00-0-000-000000-00------|
D|--------0-000-000000-00-0-000-000000-00------|

E|--------------------------------------|
B|--------------------------------------|
G|----2-222-222222-22-2-222-222222------|
D|----2-222-222222-22-2-222-222222------|
A|----0-000-000000-00-0-000-000000------|
D|--------------------------------------|

E|---------------------------------------------|
B|---------------------------------------------|
G|--6/7\6--------------------------------------|
D|--x/x\x-0-000-000000-00-0-000-000000-00------|
A|--4/5\4-0-000-000000-00-0-000-000000-00------|
D|--------0-000-000000-00-0-000-000000-00------|

E|-----------------------------------------------------|
B|-----------------------------------------------------|
G|-222-------------------------------------------------|
D|-222-(x16)-----222---------000-----------------------|
A|-000-----------222-(x16)---000-(x32)-----------------|
D|---------------222---------000-----------------------|
2:16 - 2:53

Bridge

E|---------------------------------------------------------------------------|
B|---------------------------------------------------------------------------|
G|-2222-222-222-2222-6666-666-666-6666-9999-9999-999-9\2222-2222-222-9\0-----|
D|-2222-222-222-2222-6666-666-666-6666-9999-9999-999-9\0000-0000-222-9\0-----|
A|-0000-000-000-0000-4444-444-444-4444-7777-7777-777-7\0000-0000-000-7\0-----|
D|---------------------------------------------------------------------------|
 |PM------------------------------------------------|  |---------------------|
2:53 - 3:05

E|-----------------------------------------------------------------|
B|-----------------------------------------------------------------|
G|-22222222222222-66666666666666-99999999-999-9\22222222-222-2-----|
D|-22222222222222-66666666666666-99999999-999-9\00000000-222-2-----|
A|-00000000000000-44444444444444-77777777-777-7\00000000-000-0-----|
D|-----------------------------------------------------------------|
                                         |PM-|          |PM-|
3:05 - 3:18

Post Bridge
                                                                     !
E|---0-----0--------0----0----0---0--0~---12-(Start This Again)------0~--|
B|--0-0---0-0------0----0-0--0-0-0-0-0~------------------------------0~--|
G|--------------1h2--1h2---------------------------------------------0~--|
D|-----------------------------------------------------------------------|
A|-----------------------------------------------------------------------|
D|-2----4-----0-------------2---4----------------------------------------|
3:18 - 3:33


E|--------------------------------------|
B|--------------------------------------|
G|----2-222-222222-22-2-222-222222------|
D|----2-222-222222-22-2-222-222222------|
A|----0-000-000000-00-0-000-000000------|
D|--------------------------------------|

E|---------------------------------------------|
B|---------------------------------------------|
G|--6/7\6--------------------------------------|
D|--x/x\x-0-000-000000-00-0-000-000000-00------|
A|--4/5\4-0-000-000000-00-0-000-000000-00------|
D|--------0-000-000000-00-0-000-000000-00------|

E|--------------------------------------|
B|--------------------------------------|
G|----2-222-222222-22-2-222-222222------|
D|----2-222-222222-22-2-222-222222------|
A|----0-000-000000-00-0-000-000000------|
D|--------------------------------------|

E|---------------------------------------------|
B|---------------------------------------------|
G|--6/7\6--------------------------------------|
D|--x/x\x-0-000-000000-00-0-000-000000-00------|
A|--4/5\4-0-000-000000-00-0-000-000000-00------|
D|--------0-000-000000-00-0-000-000000-00------|

E|---------------------------------------12-(Strum Until The End)----|
B|-------------------------------------------------------------------|
G|----222------------------------------------------------------------|
D|----222-(x16)-----222---------0~-----------------------------------|
A|----000-----------222-(x16)---0~-----------------------------------|
D|------------------222---------0~-----------------------------------|
3:33 - 4:30

7 Up Against The Wall: Tabbed by Drop D

Very Easy To Play. Enjoy!

/ \ - Slide

Beginning

E|-----12(Bunch of Times)------|
B|-----------------------------|
G|-----------------------------|
D|-----------------------------|
A|-----------------------------|
D|-----------------------------|
0:12 - 0:58

Chorus

E|-----------------------------------------------|
B|-----------------------------------------------|
G|-----------2-222-222222-22-2-222-222222--------|
D|-0000000---2-222-222222-22-2-222-222222--------|
A|-0000000---0-000-000000-00-0-000-000000--------|
D|-0000000---------------------------------------|
 |PM---------------------------------------------|

E|---------------------------------------------|
B|---------------------------------------------|
G|--6/x\6--------------------------------------|
D|--x/x\x-0-000-000000-00-0-000-000000-00------|
A|--4/5\4-0-000-000000-00-0-000-000000-00------|
D|--------0-000-000000-00-0-000-000000-00------|

E|--------------------------------------|
B|--------------------------------------|
G|----2-222-222222-22-2-222-222222------|
D|----2-222-222222-22-2-222-222222------|
A|----0-000-000000-00-0-000-000000------|
D|--------------------------------------|

E|---------------------------------------------|
B|---------------------------------------------|
G|--6/7\6--------------------------------------|
D|--x/x\x-0-000-000000-00-0-000-000000-00------|
A|--4/5\4-0-000-000000-00-0-000-000000-00------|
D|--------0-000-000000-00-0-000-000000-00------|

E|------------------------------12-(Start This Again)--|
B|-----------------------------------------------------|
G|-222-------------------------------------------------|
D|-222-(x16)-----222---------0~------------------------|
A|-000-----------222-(x16)---0~------------------------|
D|---------------222---------0~------------------------|
0:58 - 2:03

E|---------------------------------------------|
B|---------------------------------------------|
G|---------------------------------------------|
D|-2------4-------0----------------------------| (x2)
A|-2-(x8)-4-(x8)--0-(x16)----------------------|
D|-2------4-------0----------------------------|
 |PM-------------------------------------------|
2:03 - 2:16

E|--------------------------------------|
B|--------------------------------------|
G|----2-222-222222-22-2-222-222222------|
D|----2-222-222222-22-2-222-222222------|
A|----0-000-000000-00-0-000-000000------|
D|--------------------------------------|

E|---------------------------------------------|
B|---------------------------------------------|
G|--6/7\6--------------------------------------|
D|--x/x\x-0-000-000000-00-0-000-000000-00------|
A|--4/5\4-0-000-000000-00-0-000-000000-00------|
D|--------0-000-000000-00-0-000-000000-00------|

E|--------------------------------------|
B|--------------------------------------|
G|----2-222-222222-22-2-222-222222------|
D|----2-222-222222-22-2-222-222222------|
A|----0-000-000000-00-0-000-000000------|
D|--------------------------------------|

E|---------------------------------------------|
B|---------------------------------------------|
G|--6/7\6--------------------------------------|
D|--x/x\x-0-000-000000-00-0-000-000000-00------|
A|--4/5\4-0-000-000000-00-0-000-000000-00------|
D|--------0-000-000000-00-0-000-000000-00------|

E|-----------------------------------------------------|
B|-----------------------------------------------------|
G|-222-------------------------------------------------|
D|-222-(x16)-----222---------000-----------------------|
A|-000-----------222-(x16)---000-(x32)-----------------|
D|---------------222---------000-----------------------|
2:16 - 2:53

Bridge

E|---------------------------------------------------------------------------|
B|---------------------------------------------------------------------------|
G|-2222-222-222-2222-6666-666-666-6666-9999-9999-999-9\2222-2222-222-9\0-----|
D|-2222-222-222-2222-6666-666-666-6666-9999-9999-999-9\0000-0000-222-9\0-----|
A|-0000-000-000-0000-4444-444-444-4444-7777-7777-777-7\0000-0000-000-7\0-----|
D|---------------------------------------------------------------------------|
 |PM------------------------------------------------|  |---------------------|
2:53 - 3:05

E|-----------------------------------------------------------------|
B|-----------------------------------------------------------------|
G|-22222222222222-66666666666666-99999999-999-9\22222222-222-2-----|
D|-22222222222222-66666666666666-99999999-999-9\00000000-222-2-----|
A|-00000000000000-44444444444444-77777777-777-7\00000000-000-0-----|
D|-----------------------------------------------------------------|
                                         |PM-|          |PM-|
3:05 - 3:18

Post Bridge
                                                                     !
E|---0-----0--------0----0----0---0--0~---12-(Start This Again)------0~--|
B|--0-0---0-0------0----0-0--0-0-0-0-0~------------------------------0~--|
G|--------------1h2--1h2---------------------------------------------0~--|
D|-----------------------------------------------------------------------|
A|-----------------------------------------------------------------------|
D|-2----4-----0-------------2---4----------------------------------------|
3:18 - 3:33


E|--------------------------------------|
B|--------------------------------------|
G|----2-222-222222-22-2-222-222222------|
D|----2-222-222222-22-2-222-222222------|
A|----0-000-000000-00-0-000-000000------|
D|--------------------------------------|

E|---------------------------------------------|
B|---------------------------------------------|
G|--6/7\6--------------------------------------|
D|--x/x\x-0-000-000000-00-0-000-000000-00------|
A|--4/5\4-0-000-000000-00-0-000-000000-00------|
D|--------0-000-000000-00-0-000-000000-00------|

E|--------------------------------------|
B|--------------------------------------|
G|----2-222-222222-22-2-222-222222------|
D|----2-222-222222-22-2-222-222222------|
A|----0-000-000000-00-0-000-000000------|
D|--------------------------------------|

E|---------------------------------------------|
B|---------------------------------------------|
G|--6/7\6--------------------------------------|
D|--x/x\x-0-000-000000-00-0-000-000000-00------|
A|--4/5\4-0-000-000000-00-0-000-000000-00------|
D|--------0-000-000000-00-0-000-000000-00------|

E|---------------------------------------12-(Strum Until The End)----|
B|-------------------------------------------------------------------|
G|----222------------------------------------------------------------|
D|----222-(x16)-----222---------0~-----------------------------------|
A|----000-----------222-(x16)---0~-----------------------------------|
D|------------------222---------0~-----------------------------------|
3:33 - 4:30Drop D

Very Easy To Play. Enjoy!

/ \ - Slide

Beginning

E|-----12(Bunch of Times)------|
B|-----------------------------|
G|-----------------------------|
D|-----------------------------|
A|-----------------------------|
D|-----------------------------|
0:12 - 0:58

Chorus

E|-----------------------------------------------|
B|-----------------------------------------------|
G|-----------2-222-222222-22-2-222-222222--------|
D|-0000000---2-222-222222-22-2-222-222222--------|
A|-0000000---0-000-000000-00-0-000-000000--------|
D|-0000000---------------------------------------|
 |PM---------------------------------------------|

E|---------------------------------------------|
B|---------------------------------------------|
G|--6/x\6--------------------------------------|
D|--x/x\x-0-000-000000-00-0-000-000000-00------|
A|--4/5\4-0-000-000000-00-0-000-000000-00------|
D|--------0-000-000000-00-0-000-000000-00------|

E|--------------------------------------|
B|--------------------------------------|
G|----2-222-222222-22-2-222-222222------|
D|----2-222-222222-22-2-222-222222------|
A|----0-000-000000-00-0-000-000000------|
D|--------------------------------------|

E|---------------------------------------------|
B|---------------------------------------------|
G|--6/7\6--------------------------------------|
D|--x/x\x-0-000-000000-00-0-000-000000-00------|
A|--4/5\4-0-000-000000-00-0-000-000000-00------|
D|--------0-000-000000-00-0-000-000000-00------|

E|------------------------------12-(Start This Again)--|
B|-----------------------------------------------------|
G|-222-------------------------------------------------|
D|-222-(x16)-----222---------0~------------------------|
A|-000-----------222-(x16)---0~------------------------|
D|---------------222---------0~------------------------|
0:58 - 2:03

E|---------------------------------------------|
B|---------------------------------------------|
G|---------------------------------------------|
D|-2------4-------0----------------------------| (x2)
A|-2-(x8)-4-(x8)--0-(x16)----------------------|
D|-2------4-------0----------------------------|
 |PM-------------------------------------------|
2:03 - 2:16

E|--------------------------------------|
B|--------------------------------------|
G|----2-222-222222-22-2-222-222222------|
D|----2-222-222222-22-2-222-222222------|
A|----0-000-000000-00-0-000-000000------|
D|--------------------------------------|

E|---------------------------------------------|
B|---------------------------------------------|
G|--6/7\6--------------------------------------|
D|--x/x\x-0-000-000000-00-0-000-000000-00------|
A|--4/5\4-0-000-000000-00-0-000-000000-00------|
D|--------0-000-000000-00-0-000-000000-00------|

E|--------------------------------------|
B|--------------------------------------|
G|----2-222-222222-22-2-222-222222------|
D|----2-222-222222-22-2-222-222222------|
A|----0-000-000000-00-0-000-000000------|
D|--------------------------------------|

E|---------------------------------------------|
B|---------------------------------------------|
G|--6/7\6--------------------------------------|
D|--x/x\x-0-000-000000-00-0-000-000000-00------|
A|--4/5\4-0-000-000000-00-0-000-000000-00------|
D|--------0-000-000000-00-0-000-000000-00------|

E|-----------------------------------------------------|
B|-----------------------------------------------------|
G|-222-------------------------------------------------|
D|-222-(x16)-----222---------000-----------------------|
A|-000-----------222-(x16)---000-(x32)-----------------|
D|---------------222---------000-----------------------|
2:16 - 2:53

Bridge

E|---------------------------------------------------------------------------|
B|---------------------------------------------------------------------------|
G|-2222-222-222-2222-6666-666-666-6666-9999-9999-999-9\2222-2222-222-9\0-----|
D|-2222-222-222-2222-6666-666-666-6666-9999-9999-999-9\0000-0000-222-9\0-----|
A|-0000-000-000-0000-4444-444-444-4444-7777-7777-777-7\0000-0000-000-7\0-----|
D|---------------------------------------------------------------------------|
 |PM------------------------------------------------|  |---------------------|
2:53 - 3:05

E|-----------------------------------------------------------------|
B|-----------------------------------------------------------------|
G|-22222222222222-66666666666666-99999999-999-9\22222222-222-2-----|
D|-22222222222222-66666666666666-99999999-999-9\00000000-222-2-----|
A|-00000000000000-44444444444444-77777777-777-7\00000000-000-0-----|
D|-----------------------------------------------------------------|
                                         |PM-|          |PM-|
3:05 - 3:18

Post Bridge
                                                                     !
E|---0-----0--------0----0----0---0--0~---12-(Start This Again)------0~--|
B|--0-0---0-0------0----0-0--0-0-0-0-0~------------------------------0~--|
G|--------------1h2--1h2---------------------------------------------0~--|
D|-----------------------------------------------------------------------|
A|-----------------------------------------------------------------------|
D|-2----4-----0-------------2---4----------------------------------------|
3:18 - 3:33


E|--------------------------------------|
B|--------------------------------------|
G|----2-222-222222-22-2-222-222222------|
D|----2-222-222222-22-2-222-222222------|
A|----0-000-000000-00-0-000-000000------|
D|--------------------------------------|

E|---------------------------------------------|
B|---------------------------------------------|
G|--6/7\6--------------------------------------|
D|--x/x\x-0-000-000000-00-0-000-000000-00------|
A|--4/5\4-0-000-000000-00-0-000-000000-00------|
D|--------0-000-000000-00-0-000-000000-00------|

E|--------------------------------------|
B|--------------------------------------|
G|----2-222-222222-22-2-222-222222------|
D|----2-222-222222-22-2-222-222222------|
A|----0-000-000000-00-0-000-000000------|
D|--------------------------------------|

E|---------------------------------------------|
B|---------------------------------------------|
G|--6/7\6--------------------------------------|
D|--x/x\x-0-000-000000-00-0-000-000000-00------|
A|--4/5\4-0-000-000000-00-0-000-000000-00------|
D|--------0-000-000000-00-0-000-000000-00------|

E|---------------------------------------12-(Strum Until The End)----|
B|-------------------------------------------------------------------|
G|----222------------------------------------------------------------|
D|----222-(x16)-----222---------0~-----------------------------------|
A|----000-----------222-(x16)---0~-----------------------------------|
D|------------------222---------0~-----------------------------------|
3:33 - 4:30Drop D

Very Easy To Play. Enjoy!

/ \ - Slide

Beginning

E|-----12(Bunch of Times)------|
B|-----------------------------|
G|-----------------------------|
D|-----------------------------|
A|-----------------------------|
D|-----------------------------|
0:12 - 0:58

Chorus

E|-----------------------------------------------|
B|-----------------------------------------------|
G|-----------2-222-222222-22-2-222-222222--------|
D|-0000000---2-222-222222-22-2-222-222222--------|
A|-0000000---0-000-000000-00-0-000-000000--------|
D|-0000000---------------------------------------|
 |PM---------------------------------------------|

E|---------------------------------------------|
B|---------------------------------------------|
G|--6/x\6--------------------------------------|
D|--x/x\x-0-000-000000-00-0-000-000000-00------|
A|--4/5\4-0-000-000000-00-0-000-000000-00------|
D|--------0-000-000000-00-0-000-000000-00------|

E|--------------------------------------|
B|--------------------------------------|
G|----2-222-222222-22-2-222-222222------|
D|----2-222-222222-22-2-222-222222------|
A|----0-000-000000-00-0-000-000000------|
D|--------------------------------------|

E|---------------------------------------------|
B|---------------------------------------------|
G|--6/7\6--------------------------------------|
D|--x/x\x-0-000-000000-00-0-000-000000-00------|
A|--4/5\4-0-000-000000-00-0-000-000000-00------|
D|--------0-000-000000-00-0-000-000000-00------|

E|------------------------------12-(Start This Again)--|
B|-----------------------------------------------------|
G|-222-------------------------------------------------|
D|-222-(x16)-----222---------0~------------------------|
A|-000-----------222-(x16)---0~------------------------|
D|---------------222---------0~------------------------|
0:58 - 2:03

E|---------------------------------------------|
B|---------------------------------------------|
G|---------------------------------------------|
D|-2------4-------0----------------------------| (x2)
A|-2-(x8)-4-(x8)--0-(x16)----------------------|
D|-2------4-------0----------------------------|
 |PM-------------------------------------------|
2:03 - 2:16

E|--------------------------------------|
B|--------------------------------------|
G|----2-222-222222-22-2-222-222222------|
D|----2-222-222222-22-2-222-222222------|
A|----0-000-000000-00-0-000-000000------|
D|--------------------------------------|

E|---------------------------------------------|
B|---------------------------------------------|
G|--6/7\6--------------------------------------|
D|--x/x\x-0-000-000000-00-0-000-000000-00------|
A|--4/5\4-0-000-000000-00-0-000-000000-00------|
D|--------0-000-000000-00-0-000-000000-00------|

E|--------------------------------------|
B|--------------------------------------|
G|----2-222-222222-22-2-222-222222------|
D|----2-222-222222-22-2-222-222222------|
A|----0-000-000000-00-0-000-000000------|
D|--------------------------------------|

E|---------------------------------------------|
B|---------------------------------------------|
G|--6/7\6--------------------------------------|
D|--x/x\x-0-000-000000-00-0-000-000000-00------|
A|--4/5\4-0-000-000000-00-0-000-000000-00------|
D|--------0-000-000000-00-0-000-000000-00------|

E|-----------------------------------------------------|
B|-----------------------------------------------------|
G|-222-------------------------------------------------|
D|-222-(x16)-----222---------000-----------------------|
A|-000-----------222-(x16)---000-(x32)-----------------|
D|---------------222---------000-----------------------|
2:16 - 2:53

Bridge

E|---------------------------------------------------------------------------|
B|---------------------------------------------------------------------------|
G|-2222-222-222-2222-6666-666-666-6666-9999-9999-999-9\2222-2222-222-9\0-----|
D|-2222-222-222-2222-6666-666-666-6666-9999-9999-999-9\0000-0000-222-9\0-----|
A|-0000-000-000-0000-4444-444-444-4444-7777-7777-777-7\0000-0000-000-7\0-----|
D|---------------------------------------------------------------------------|
 |PM------------------------------------------------|  |---------------------|
2:53 - 3:05

E|-----------------------------------------------------------------|
B|-----------------------------------------------------------------|
G|-22222222222222-66666666666666-99999999-999-9\22222222-222-2-----|
D|-22222222222222-66666666666666-99999999-999-9\00000000-222-2-----|
A|-00000000000000-44444444444444-77777777-777-7\00000000-000-0-----|
D|-----------------------------------------------------------------|
                                         |PM-|          |PM-|
3:05 - 3:18

Post Bridge
                                                                     !
E|---0-----0--------0----0----0---0--0~---12-(Start This Again)------0~--|
B|--0-0---0-0------0----0-0--0-0-0-0-0~------------------------------0~--|
G|--------------1h2--1h2---------------------------------------------0~--|
D|-----------------------------------------------------------------------|
A|-----------------------------------------------------------------------|
D|-2----4-----0-------------2---4----------------------------------------|
3:18 - 3:33


E|--------------------------------------|
B|--------------------------------------|
G|----2-222-222222-22-2-222-222222------|
D|----2-222-222222-22-2-222-222222------|
A|----0-000-000000-00-0-000-000000------|
D|--------------------------------------|

E|---------------------------------------------|
B|---------------------------------------------|
G|--6/7\6--------------------------------------|
D|--x/x\x-0-000-000000-00-0-000-000000-00------|
A|--4/5\4-0-000-000000-00-0-000-000000-00------|
D|--------0-000-000000-00-0-000-000000-00------|

E|--------------------------------------|
B|--------------------------------------|
G|----2-222-222222-22-2-222-222222------|
D|----2-222-222222-22-2-222-222222------|
A|----0-000-000000-00-0-000-000000------|
D|--------------------------------------|

E|---------------------------------------------|
B|---------------------------------------------|
G|--6/7\6--------------------------------------|
D|--x/x\x-0-000-000000-00-0-000-000000-00------|
A|--4/5\4-0-000-000000-00-0-000-000000-00------|
D|--------0-000-000000-00-0-000-000000-00------|

E|---------------------------------------12-(Strum Until The End)----|
B|-------------------------------------------------------------------|
G|----222------------------------------------------------------------|
D|----222-(x16)-----222---------0~-----------------------------------|
A|----000-----------222-(x16)---0~-----------------------------------|
D|------------------222---------0~-----------------------------------|
3:33 - 4:30Drop D

Very Easy To Play. Enjoy!

/ \ - Slide

Beginning

E|-----12(Bunch of Times)------|
B|-----------------------------|
G|-----------------------------|
D|-----------------------------|
A|-----------------------------|
D|-----------------------------|
0:12 - 0:58

Chorus

E|-----------------------------------------------|
B|-----------------------------------------------|
G|-----------2-222-222222-22-2-222-222222--------|
D|-0000000---2-222-222222-22-2-222-222222--------|
A|-0000000---0-000-000000-00-0-000-000000--------|
D|-0000000---------------------------------------|
 |PM---------------------------------------------|

E|---------------------------------------------|
B|---------------------------------------------|
G|--6/x\6--------------------------------------|
D|--x/x\x-0-000-000000-00-0-000-000000-00------|
A|--4/5\4-0-000-000000-00-0-000-000000-00------|
D|--------0-000-000000-00-0-000-000000-00------|

E|--------------------------------------|
B|--------------------------------------|
G|----2-222-222222-22-2-222-222222------|
D|----2-222-222222-22-2-222-222222------|
A|----0-000-000000-00-0-000-000000------|
D|--------------------------------------|

E|---------------------------------------------|
B|---------------------------------------------|
G|--6/7\6--------------------------------------|
D|--x/x\x-0-000-000000-00-0-000-000000-00------|
A|--4/5\4-0-000-000000-00-0-000-000000-00------|
D|--------0-000-000000-00-0-000-000000-00------|

E|------------------------------12-(Start This Again)--|
B|-----------------------------------------------------|
G|-222-------------------------------------------------|
D|-222-(x16)-----222---------0~------------------------|
A|-000-----------222-(x16)---0~------------------------|
D|---------------222---------0~------------------------|
0:58 - 2:03

E|---------------------------------------------|
B|---------------------------------------------|
G|---------------------------------------------|
D|-2------4-------0----------------------------| (x2)
A|-2-(x8)-4-(x8)--0-(x16)----------------------|
D|-2------4-------0----------------------------|
 |PM-------------------------------------------|
2:03 - 2:16

E|--------------------------------------|
B|--------------------------------------|
G|----2-222-222222-22-2-222-222222------|
D|----2-222-222222-22-2-222-222222------|
A|----0-000-000000-00-0-000-000000------|
D|--------------------------------------|

E|---------------------------------------------|
B|---------------------------------------------|
G|--6/7\6--------------------------------------|
D|--x/x\x-0-000-000000-00-0-000-000000-00------|
A|--4/5\4-0-000-000000-00-0-000-000000-00------|
D|--------0-000-000000-00-0-000-000000-00------|

E|--------------------------------------|
B|--------------------------------------|
G|----2-222-222222-22-2-222-222222------|
D|----2-222-222222-22-2-222-222222------|
A|----0-000-000000-00-0-000-000000------|
D|--------------------------------------|

E|---------------------------------------------|
B|---------------------------------------------|
G|--6/7\6--------------------------------------|
D|--x/x\x-0-000-000000-00-0-000-000000-00------|
A|--4/5\4-0-000-000000-00-0-000-000000-00------|
D|--------0-000-000000-00-0-000-000000-00------|

E|-----------------------------------------------------|
B|-----------------------------------------------------|
G|-222-------------------------------------------------|
D|-222-(x16)-----222---------000-----------------------|
A|-000-----------222-(x16)---000-(x32)-----------------|
D|---------------222---------000-----------------------|
2:16 - 2:53

Bridge

E|---------------------------------------------------------------------------|
B|---------------------------------------------------------------------------|
G|-2222-222-222-2222-6666-666-666-6666-9999-9999-999-9\2222-2222-222-9\0-----|
D|-2222-222-222-2222-6666-666-666-6666-9999-9999-999-9\0000-0000-222-9\0-----|
A|-0000-000-000-0000-4444-444-444-4444-7777-7777-777-7\0000-0000-000-7\0-----|
D|---------------------------------------------------------------------------|
 |PM------------------------------------------------|  |---------------------|
2:53 - 3:05

E|-----------------------------------------------------------------|
B|-----------------------------------------------------------------|
G|-22222222222222-66666666666666-99999999-999-9\22222222-222-2-----|
D|-22222222222222-66666666666666-99999999-999-9\00000000-222-2-----|
A|-00000000000000-44444444444444-77777777-777-7\00000000-000-0-----|
D|-----------------------------------------------------------------|
                                         |PM-|          |PM-|
3:05 - 3:18

Post Bridge
                                                                     !
E|---0-----0--------0----0----0---0--0~---12-(Start This Again)------0~--|
B|--0-0---0-0------0----0-0--0-0-0-0-0~------------------------------0~--|
G|--------------1h2--1h2---------------------------------------------0~--|
D|-----------------------------------------------------------------------|
A|-----------------------------------------------------------------------|
D|-2----4-----0-------------2---4----------------------------------------|
3:18 - 3:33


E|--------------------------------------|
B|--------------------------------------|
G|----2-222-222222-22-2-222-222222------|
D|----2-222-222222-22-2-222-222222------|
A|----0-000-000000-00-0-000-000000------|
D|--------------------------------------|

E|---------------------------------------------|
B|---------------------------------------------|
G|--6/7\6--------------------------------------|
D|--x/x\x-0-000-000000-00-0-000-000000-00------|
A|--4/5\4-0-000-000000-00-0-000-000000-00------|
D|--------0-000-000000-00-0-000-000000-00------|

E|--------------------------------------|
B|--------------------------------------|
G|----2-222-222222-22-2-222-222222------|
D|----2-222-222222-22-2-222-222222------|
A|----0-000-000000-00-0-000-000000------|
D|--------------------------------------|

E|---------------------------------------------|
B|---------------------------------------------|
G|--6/7\6--------------------------------------|
D|--x/x\x-0-000-000000-00-0-000-000000-00------|
A|--4/5\4-0-000-000000-00-0-000-000000-00------|
D|--------0-000-000000-00-0-000-000000-00------|

E|---------------------------------------12-(Strum Until The End)----|
B|-------------------------------------------------------------------|
G|----222------------------------------------------------------------|
D|----222-(x16)-----222---------0~-----------------------------------|
A|----000-----------222-(x16)---0~-----------------------------------|
D|------------------222---------0~-----------------------------------|
3:33 - 4:30Drop D

Very Easy To Play. Enjoy!

/ \ - Slide

Beginning

E|-----12(Bunch of Times)------|
B|-----------------------------|
G|-----------------------------|
D|-----------------------------|
A|-----------------------------|
D|-----------------------------|
0:12 - 0:58

Chorus

E|-----------------------------------------------|
B|-----------------------------------------------|
G|-----------2-222-222222-22-2-222-222222--------|
D|-0000000---2-222-222222-22-2-222-222222--------|
A|-0000000---0-000-000000-00-0-000-000000--------|
D|-0000000---------------------------------------|
 |PM---------------------------------------------|

E|---------------------------------------------|
B|---------------------------------------------|
G|--6/x\6--------------------------------------|
D|--x/x\x-0-000-000000-00-0-000-000000-00------|
A|--4/5\4-0-000-000000-00-0-000-000000-00------|
D|--------0-000-000000-00-0-000-000000-00------|

E|--------------------------------------|
B|--------------------------------------|
G|----2-222-222222-22-2-222-222222------|
D|----2-222-222222-22-2-222-222222------|
A|----0-000-000000-00-0-000-000000------|
D|--------------------------------------|

E|---------------------------------------------|
B|---------------------------------------------|
G|--6/7\6--------------------------------------|
D|--x/x\x-0-000-000000-00-0-000-000000-00------|
A|--4/5\4-0-000-000000-00-0-000-000000-00------|
D|--------0-000-000000-00-0-000-000000-00------|

E|------------------------------12-(Start This Again)--|
B|-----------------------------------------------------|
G|-222-------------------------------------------------|
D|-222-(x16)-----222---------0~------------------------|
A|-000-----------222-(x16)---0~------------------------|
D|---------------222---------0~------------------------|
0:58 - 2:03

E|---------------------------------------------|
B|---------------------------------------------|
G|---------------------------------------------|
D|-2------4-------0----------------------------| (x2)
A|-2-(x8)-4-(x8)--0-(x16)----------------------|
D|-2------4-------0----------------------------|
 |PM-------------------------------------------|
2:03 - 2:16

E|--------------------------------------|
B|--------------------------------------|
G|----2-222-222222-22-2-222-222222------|
D|----2-222-222222-22-2-222-222222------|
A|----0-000-000000-00-0-000-000000------|
D|--------------------------------------|

E|---------------------------------------------|
B|---------------------------------------------|
G|--6/7\6--------------------------------------|
D|--x/x\x-0-000-000000-00-0-000-000000-00------|
A|--4/5\4-0-000-000000-00-0-000-000000-00------|
D|--------0-000-000000-00-0-000-000000-00------|

E|--------------------------------------|
B|--------------------------------------|
G|----2-222-222222-22-2-222-222222------|
D|----2-222-222222-22-2-222-222222------|
A|----0-000-000000-00-0-000-000000------|
D|--------------------------------------|

E|---------------------------------------------|
B|---------------------------------------------|
G|--6/7\6--------------------------------------|
D|--x/x\x-0-000-000000-00-0-000-000000-00------|
A|--4/5\4-0-000-000000-00-0-000-000000-00------|
D|--------0-000-000000-00-0-000-000000-00------|

E|-----------------------------------------------------|
B|-----------------------------------------------------|
G|-222-------------------------------------------------|
D|-222-(x16)-----222---------000-----------------------|
A|-000-----------222-(x16)---000-(x32)-----------------|
D|---------------222---------000-----------------------|
2:16 - 2:53

Bridge

E|---------------------------------------------------------------------------|
B|---------------------------------------------------------------------------|
G|-2222-222-222-2222-6666-666-666-6666-9999-9999-999-9\2222-2222-222-9\0-----|
D|-2222-222-222-2222-6666-666-666-6666-9999-9999-999-9\0000-0000-222-9\0-----|
A|-0000-000-000-0000-4444-444-444-4444-7777-7777-777-7\0000-0000-000-7\0-----|
D|---------------------------------------------------------------------------|
 |PM------------------------------------------------|  |---------------------|
2:53 - 3:05

E|-----------------------------------------------------------------|
B|-----------------------------------------------------------------|
G|-22222222222222-66666666666666-99999999-999-9\22222222-222-2-----|
D|-22222222222222-66666666666666-99999999-999-9\00000000-222-2-----|
A|-00000000000000-44444444444444-77777777-777-7\00000000-000-0-----|
D|-----------------------------------------------------------------|
                                         |PM-|          |PM-|
3:05 - 3:18

Post Bridge
                                                                     !
E|---0-----0--------0----0----0---0--0~---12-(Start This Again)------0~--|
B|--0-0---0-0------0----0-0--0-0-0-0-0~------------------------------0~--|
G|--------------1h2--1h2---------------------------------------------0~--|
D|-----------------------------------------------------------------------|
A|-----------------------------------------------------------------------|
D|-2----4-----0-------------2---4----------------------------------------|
3:18 - 3:33


E|--------------------------------------|
B|--------------------------------------|
G|----2-222-222222-22-2-222-222222------|
D|----2-222-222222-22-2-222-222222------|
A|----0-000-000000-00-0-000-000000------|
D|--------------------------------------|

E|---------------------------------------------|
B|---------------------------------------------|
G|--6/7\6--------------------------------------|
D|--x/x\x-0-000-000000-00-0-000-000000-00------|
A|--4/5\4-0-000-000000-00-0-000-000000-00------|
D|--------0-000-000000-00-0-000-000000-00------|

E|--------------------------------------|
B|--------------------------------------|
G|----2-222-222222-22-2-222-222222------|
D|----2-222-222222-22-2-222-222222------|
A|----0-000-000000-00-0-000-000000------|
D|--------------------------------------|

E|---------------------------------------------|
B|---------------------------------------------|
G|--6/7\6--------------------------------------|
D|--x/x\x-0-000-000000-00-0-000-000000-00------|
A|--4/5\4-0-000-000000-00-0-000-000000-00------|
D|--------0-000-000000-00-0-000-000000-00------|

E|---------------------------------------12-(Strum Until The End)----|
B|-------------------------------------------------------------------|
G|----222------------------------------------------------------------|
D|----222-(x16)-----222---------0~-----------------------------------|
A|----000-----------222-(x16)---0~-----------------------------------|
D|------------------222---------0~-----------------------------------|
3:33 - 4:30Drop D

Very Easy To Play. Enjoy!

/ \ - Slide

Beginning

E|-----12(Bunch of Times)------|
B|-----------------------------|
G|-----------------------------|
D|-----------------------------|
A|-----------------------------|
D|-----------------------------|
0:12 - 0:58

Chorus

E|-----------------------------------------------|
B|-----------------------------------------------|
G|-----------2-222-222222-22-2-222-222222--------|
D|-0000000---2-222-222222-22-2-222-222222--------|
A|-0000000---0-000-000000-00-0-000-000000--------|
D|-0000000---------------------------------------|
 |PM---------------------------------------------|

E|---------------------------------------------|
B|---------------------------------------------|
G|--6/x\6--------------------------------------|
D|--x/x\x-0-000-000000-00-0-000-000000-00------|
A|--4/5\4-0-000-000000-00-0-000-000000-00------|
D|--------0-000-000000-00-0-000-000000-00------|

E|--------------------------------------|
B|--------------------------------------|
G|----2-222-222222-22-2-222-222222------|
D|----2-222-222222-22-2-222-222222------|
A|----0-000-000000-00-0-000-000000------|
D|--------------------------------------|

E|---------------------------------------------|
B|---------------------------------------------|
G|--6/7\6--------------------------------------|
D|--x/x\x-0-000-000000-00-0-000-000000-00------|
A|--4/5\4-0-000-000000-00-0-000-000000-00------|
D|--------0-000-000000-00-0-000-000000-00------|

E|------------------------------12-(Start This Again)--|
B|-----------------------------------------------------|
G|-222-------------------------------------------------|
D|-222-(x16)-----222---------0~------------------------|
A|-000-----------222-(x16)---0~------------------------|
D|---------------222---------0~------------------------|
0:58 - 2:03

E|---------------------------------------------|
B|---------------------------------------------|
G|---------------------------------------------|
D|-2------4-------0----------------------------| (x2)
A|-2-(x8)-4-(x8)--0-(x16)----------------------|
D|-2------4-------0----------------------------|
 |PM-------------------------------------------|
2:03 - 2:16

E|--------------------------------------|
B|--------------------------------------|
G|----2-222-222222-22-2-222-222222------|
D|----2-222-222222-22-2-222-222222------|
A|----0-000-000000-00-0-000-000000------|
D|--------------------------------------|

E|---------------------------------------------|
B|---------------------------------------------|
G|--6/7\6--------------------------------------|
D|--x/x\x-0-000-000000-00-0-000-000000-00------|
A|--4/5\4-0-000-000000-00-0-000-000000-00------|
D|--------0-000-000000-00-0-000-000000-00------|

E|--------------------------------------|
B|--------------------------------------|
G|----2-222-222222-22-2-222-222222------|
D|----2-222-222222-22-2-222-222222------|
A|----0-000-000000-00-0-000-000000------|
D|--------------------------------------|

E|---------------------------------------------|
B|---------------------------------------------|
G|--6/7\6--------------------------------------|
D|--x/x\x-0-000-000000-00-0-000-000000-00------|
A|--4/5\4-0-000-000000-00-0-000-000000-00------|
D|--------0-000-000000-00-0-000-000000-00------|

E|-----------------------------------------------------|
B|-----------------------------------------------------|
G|-222-------------------------------------------------|
D|-222-(x16)-----222---------000-----------------------|
A|-000-----------222-(x16)---000-(x32)-----------------|
D|---------------222---------000-----------------------|
2:16 - 2:53

Bridge

E|---------------------------------------------------------------------------|
B|---------------------------------------------------------------------------|
G|-2222-222-222-2222-6666-666-666-6666-9999-9999-999-9\2222-2222-222-9\0-----|
D|-2222-222-222-2222-6666-666-666-6666-9999-9999-999-9\0000-0000-222-9\0-----|
A|-0000-000-000-0000-4444-444-444-4444-7777-7777-777-7\0000-0000-000-7\0-----|
D|---------------------------------------------------------------------------|
 |PM------------------------------------------------|  |---------------------|
2:53 - 3:05

E|-----------------------------------------------------------------|
B|-----------------------------------------------------------------|
G|-22222222222222-66666666666666-99999999-999-9\22222222-222-2-----|
D|-22222222222222-66666666666666-99999999-999-9\00000000-222-2-----|
A|-00000000000000-44444444444444-77777777-777-7\00000000-000-0-----|
D|-----------------------------------------------------------------|
                                         |PM-|          |PM-|
3:05 - 3:18

Post Bridge
                                                                     !
E|---0-----0--------0----0----0---0--0~---12-(Start This Again)------0~--|
B|--0-0---0-0------0----0-0--0-0-0-0-0~------------------------------0~--|
G|--------------1h2--1h2---------------------------------------------0~--|
D|-----------------------------------------------------------------------|
A|-----------------------------------------------------------------------|
D|-2----4-----0-------------2---4----------------------------------------|
3:18 - 3:33


E|--------------------------------------|
B|--------------------------------------|
G|----2-222-222222-22-2-222-222222------|
D|----2-222-222222-22-2-222-222222------|
A|----0-000-000000-00-0-000-000000------|
D|--------------------------------------|

E|---------------------------------------------|
B|---------------------------------------------|
G|--6/7\6--------------------------------------|
D|--x/x\x-0-000-000000-00-0-000-000000-00------|
A|--4/5\4-0-000-000000-00-0-000-000000-00------|
D|--------0-000-000000-00-0-000-000000-00------|

E|--------------------------------------|
B|--------------------------------------|
G|----2-222-222222-22-2-222-222222------|
D|----2-222-222222-22-2-222-222222------|
A|----0-000-000000-00-0-000-000000------|
D|--------------------------------------|

E|---------------------------------------------|
B|---------------------------------------------|
G|--6/7\6--------------------------------------|
D|--x/x\x-0-000-000000-00-0-000-000000-00------|
A|--4/5\4-0-000-000000-00-0-000-000000-00------|
D|--------0-000-000000-00-0-000-000000-00------|

E|---------------------------------------12-(Strum Until The End)----|
B|-------------------------------------------------------------------|
G|----222------------------------------------------------------------|
D|----222-(x16)-----222---------0~-----------------------------------|
A|----000-----------222-(x16)---0~-----------------------------------|
D|------------------222---------0~-----------------------------------|
3:33 - 4:30Drop D

Very Easy To Play. Enjoy!

/ \ - Slide

Beginning

E|-----12(Bunch of Times)------|
B|-----------------------------|
G|-----------------------------|
D|-----------------------------|
A|-----------------------------|
D|-----------------------------|
0:12 - 0:58

Chorus

E|-----------------------------------------------|
B|-----------------------------------------------|
G|-----------2-222-222222-22-2-222-222222--------|
D|-0000000---2-222-222222-22-2-222-222222--------|
A|-0000000---0-000-000000-00-0-000-000000--------|
D|-0000000---------------------------------------|
 |PM---------------------------------------------|

E|---------------------------------------------|
B|---------------------------------------------|
G|--6/x\6--------------------------------------|
D|--x/x\x-0-000-000000-00-0-000-000000-00------|
A|--4/5\4-0-000-000000-00-0-000-000000-00------|
D|--------0-000-000000-00-0-000-000000-00------|

E|--------------------------------------|
B|--------------------------------------|
G|----2-222-222222-22-2-222-222222------|
D|----2-222-222222-22-2-222-222222------|
A|----0-000-000000-00-0-000-000000------|
D|--------------------------------------|

E|---------------------------------------------|
B|---------------------------------------------|
G|--6/7\6--------------------------------------|
D|--x/x\x-0-000-000000-00-0-000-000000-00------|
A|--4/5\4-0-000-000000-00-0-000-000000-00------|
D|--------0-000-000000-00-0-000-000000-00------|

E|------------------------------12-(Start This Again)--|
B|-----------------------------------------------------|
G|-222-------------------------------------------------|
D|-222-(x16)-----222---------0~------------------------|
A|-000-----------222-(x16)---0~------------------------|
D|---------------222---------0~------------------------|
0:58 - 2:03

E|---------------------------------------------|
B|---------------------------------------------|
G|---------------------------------------------|
D|-2------4-------0----------------------------| (x2)
A|-2-(x8)-4-(x8)--0-(x16)----------------------|
D|-2------4-------0----------------------------|
 |PM-------------------------------------------|
2:03 - 2:16

E|--------------------------------------|
B|--------------------------------------|
G|----2-222-222222-22-2-222-222222------|
D|----2-222-222222-22-2-222-222222------|
A|----0-000-000000-00-0-000-000000------|
D|--------------------------------------|

E|---------------------------------------------|
B|---------------------------------------------|
G|--6/7\6--------------------------------------|
D|--x/x\x-0-000-000000-00-0-000-000000-00------|
A|--4/5\4-0-000-000000-00-0-000-000000-00------|
D|--------0-000-000000-00-0-000-000000-00------|

E|--------------------------------------|
B|--------------------------------------|
G|----2-222-222222-22-2-222-222222------|
D|----2-222-222222-22-2-222-222222------|
A|----0-000-000000-00-0-000-000000------|
D|--------------------------------------|

E|---------------------------------------------|
B|---------------------------------------------|
G|--6/7\6--------------------------------------|
D|--x/x\x-0-000-000000-00-0-000-000000-00------|
A|--4/5\4-0-000-000000-00-0-000-000000-00------|
D|--------0-000-000000-00-0-000-000000-00------|

E|-----------------------------------------------------|
B|-----------------------------------------------------|
G|-222-------------------------------------------------|
D|-222-(x16)-----222---------000-----------------------|
A|-000-----------222-(x16)---000-(x32)-----------------|
D|---------------222---------000-----------------------|
2:16 - 2:53

Bridge

E|---------------------------------------------------------------------------|
B|---------------------------------------------------------------------------|
G|-2222-222-222-2222-6666-666-666-6666-9999-9999-999-9\2222-2222-222-9\0-----|
D|-2222-222-222-2222-6666-666-666-6666-9999-9999-999-9\0000-0000-222-9\0-----|
A|-0000-000-000-0000-4444-444-444-4444-7777-7777-777-7\0000-0000-000-7\0-----|
D|---------------------------------------------------------------------------|
 |PM------------------------------------------------|  |---------------------|
2:53 - 3:05

E|-----------------------------------------------------------------|
B|-----------------------------------------------------------------|
G|-22222222222222-66666666666666-99999999-999-9\22222222-222-2-----|
D|-22222222222222-66666666666666-99999999-999-9\00000000-222-2-----|
A|-00000000000000-44444444444444-77777777-777-7\00000000-000-0-----|
D|-----------------------------------------------------------------|
                                         |PM-|          |PM-|
3:05 - 3:18

Post Bridge
                                                                     !
E|---0-----0--------0----0----0---0--0~---12-(Start This Again)------0~--|
B|--0-0---0-0------0----0-0--0-0-0-0-0~------------------------------0~--|
G|--------------1h2--1h2---------------------------------------------0~--|
D|-----------------------------------------------------------------------|
A|-----------------------------------------------------------------------|
D|-2----4-----0-------------2---4----------------------------------------|
3:18 - 3:33


E|--------------------------------------|
B|--------------------------------------|
G|----2-222-222222-22-2-222-222222------|
D|----2-222-222222-22-2-222-222222------|
A|----0-000-000000-00-0-000-000000------|
D|--------------------------------------|

E|---------------------------------------------|
B|---------------------------------------------|
G|--6/7\6--------------------------------------|
D|--x/x\x-0-000-000000-00-0-000-000000-00------|
A|--4/5\4-0-000-000000-00-0-000-000000-00------|
D|--------0-000-000000-00-0-000-000000-00------|

E|--------------------------------------|
B|--------------------------------------|
G|----2-222-222222-22-2-222-222222------|
D|----2-222-222222-22-2-222-222222------|
A|----0-000-000000-00-0-000-000000------|
D|--------------------------------------|

E|---------------------------------------------|
B|---------------------------------------------|
G|--6/7\6--------------------------------------|
D|--x/x\x-0-000-000000-00-0-000-000000-00------|
A|--4/5\4-0-000-000000-00-0-000-000000-00------|
D|--------0-000-000000-00-0-000-000000-00------|

E|---------------------------------------12-(Strum Until The End)----|
B|-------------------------------------------------------------------|
G|----222------------------------------------------------------------|
D|----222-(x16)-----222---------0~-----------------------------------|
A|----000-----------222-(x16)---0~-----------------------------------|
D|------------------222---------0~-----------------------------------|
3:33 - 4:30
Drop D

Very Easy To Play. Enjoy!

/ \ - Slide

Beginning

E|-----12(Bunch of Times)------|
B|-----------------------------|
G|-----------------------------|
D|-----------------------------|
A|-----------------------------|
D|-----------------------------|
0:12 - 0:58

Chorus

E|-----------------------------------------------|
B|-----------------------------------------------|
G|-----------2-222-222222-22-2-222-222222--------|
D|-0000000---2-222-222222-22-2-222-222222--------|
A|-0000000---0-000-000000-00-0-000-000000--------|
D|-0000000---------------------------------------|
 |PM---------------------------------------------|

E|---------------------------------------------|
B|---------------------------------------------|
G|--6/x\6--------------------------------------|
D|--x/x\x-0-000-000000-00-0-000-000000-00------|
A|--4/5\4-0-000-000000-00-0-000-000000-00------|
D|--------0-000-000000-00-0-000-000000-00------|

E|--------------------------------------|
B|--------------------------------------|
G|----2-222-222222-22-2-222-222222------|
D|----2-222-222222-22-2-222-222222------|
A|----0-000-000000-00-0-000-000000------|
D|--------------------------------------|

E|---------------------------------------------|
B|---------------------------------------------|
G|--6/7\6--------------------------------------|
D|--x/x\x-0-000-000000-00-0-000-000000-00------|
A|--4/5\4-0-000-000000-00-0-000-000000-00------|
D|--------0-000-000000-00-0-000-000000-00------|

E|------------------------------12-(Start This Again)--|
B|-----------------------------------------------------|
G|-222-------------------------------------------------|
D|-222-(x16)-----222---------0~------------------------|
A|-000-----------222-(x16)---0~------------------------|
D|---------------222---------0~------------------------|
0:58 - 2:03

E|---------------------------------------------|
B|---------------------------------------------|
G|---------------------------------------------|
D|-2------4-------0----------------------------| (x2)
A|-2-(x8)-4-(x8)--0-(x16)----------------------|
D|-2------4-------0----------------------------|
 |PM-------------------------------------------|
2:03 - 2:16

E|--------------------------------------|
B|--------------------------------------|
G|----2-222-222222-22-2-222-222222------|
D|----2-222-222222-22-2-222-222222------|
A|----0-000-000000-00-0-000-000000------|
D|--------------------------------------|

E|---------------------------------------------|
B|---------------------------------------------|
G|--6/7\6--------------------------------------|
D|--x/x\x-0-000-000000-00-0-000-000000-00------|
A|--4/5\4-0-000-000000-00-0-000-000000-00------|
D|--------0-000-000000-00-0-000-000000-00------|

E|--------------------------------------|
B|--------------------------------------|
G|----2-222-222222-22-2-222-222222------|
D|----2-222-222222-22-2-222-222222------|
A|----0-000-000000-00-0-000-000000------|
D|--------------------------------------|

E|---------------------------------------------|
B|---------------------------------------------|
G|--6/7\6--------------------------------------|
D|--x/x\x-0-000-000000-00-0-000-000000-00------|
A|--4/5\4-0-000-000000-00-0-000-000000-00------|
D|--------0-000-000000-00-0-000-000000-00------|

E|-----------------------------------------------------|
B|-----------------------------------------------------|
G|-222-------------------------------------------------|
D|-222-(x16)-----222---------000-----------------------|
A|-000-----------222-(x16)---000-(x32)-----------------|
D|---------------222---------000-----------------------|
2:16 - 2:53

Bridge

E|---------------------------------------------------------------------------|
B|---------------------------------------------------------------------------|
G|-2222-222-222-2222-6666-666-666-6666-9999-9999-999-9\2222-2222-222-9\0-----|
D|-2222-222-222-2222-6666-666-666-6666-9999-9999-999-9\0000-0000-222-9\0-----|
A|-0000-000-000-0000-4444-444-444-4444-7777-7777-777-7\0000-0000-000-7\0-----|
D|---------------------------------------------------------------------------|
 |PM------------------------------------------------|  |---------------------|
2:53 - 3:05

E|-----------------------------------------------------------------|
B|-----------------------------------------------------------------|
G|-22222222222222-66666666666666-99999999-999-9\22222222-222-2-----|
D|-22222222222222-66666666666666-99999999-999-9\00000000-222-2-----|
A|-00000000000000-44444444444444-77777777-777-7\00000000-000-0-----|
D|-----------------------------------------------------------------|
                                         |PM-|          |PM-|
3:05 - 3:18

Post Bridge
                                                                     !
E|---0-----0--------0----0----0---0--0~---12-(Start This Again)------0~--|
B|--0-0---0-0------0----0-0--0-0-0-0-0~------------------------------0~--|
G|--------------1h2--1h2---------------------------------------------0~--|
D|-----------------------------------------------------------------------|
A|-----------------------------------------------------------------------|
D|-2----4-----0-------------2---4----------------------------------------|
3:18 - 3:33


E|--------------------------------------|
B|--------------------------------------|
G|----2-222-222222-22-2-222-222222------|
D|----2-222-222222-22-2-222-222222------|
A|----0-000-000000-00-0-000-000000------|
D|--------------------------------------|

E|---------------------------------------------|
B|---------------------------------------------|
G|--6/7\6--------------------------------------|
D|--x/x\x-0-000-000000-00-0-000-000000-00------|
A|--4/5\4-0-000-000000-00-0-000-000000-00------|
D|--------0-000-000000-00-0-000-000000-00------|

E|--------------------------------------|
B|--------------------------------------|
G|----2-222-222222-22-2-222-222222------|
D|----2-222-222222-22-2-222-222222------|
A|----0-000-000000-00-0-000-000000------|
D|--------------------------------------|

E|---------------------------------------------|
B|---------------------------------------------|
G|--6/7\6--------------------------------------|
D|--x/x\x-0-000-000000-00-0-000-000000-00------|
A|--4/5\4-0-000-000000-00-0-000-000000-00------|
D|--------0-000-000000-00-0-000-000000-00------|

E|---------------------------------------12-(Strum Until The End)----|
B|-------------------------------------------------------------------|
G|----222------------------------------------------------------------|
D|----222-(x16)-----222---------0~-----------------------------------|
A|----000-----------222-(x16)---0~-----------------------------------|
D|------------------222---------0~-----------------------------------|
3:33 - 4:30

7- Up Against The Wall: tabbed by vertebraille

Tuning: Drop D

Intro

Guitar 1

e|---------------------------------------------------------------------------|
B|------------1515-1313------------------------------------------------------|
G|--99-1010--------------1414------------------------------------------------|  (2x)
D|---------------------------------------------------------------------------|
A|---------------------------------------------------------------------------|
D|---------------------------------------------------------------------------|

Intro II

Guitar 1 (Strumming pattern not shown. It's pretty easy. You can figure it out by
to the song)

e|---------------------------------------------------------------------------|
B|---------------------------------------------------------------------------|
G|---10-------19-----17----14-----9--9-----10--------------------------------|  (2x)
D|----x(12x)--x(4x)--x(3x)—-x(2x)-x-—x(4x)—-x(4x)----------------------------|
A|----8-------17-----15----12-----7--7------8--------------------------------|
D|---------------------------------------------------------------------------|

Guitar 2

e|---------------------------------------------------------------------------|
B|---------------------------------------------------------------------------|
G|---10-----------7----------------------------------------------------------|  (2x)
D|----8-(16x)-----5-(16x)----------------------------------------------------|
A|----8-----------5----------------------------------------------------------|
D|---------------------------------------------------------------------------|

Verse

Both Guitars

e|---------------------------------------------------------------------------|
B|---------------------------------------------------------------------------|
G|---------------------------------------------------------------------------|  (2x)
D|---------------------------------------------------------------------------|
A|-00-0000000000000000-5555555555555555--------------------------------------|
D|-00-0000000000000000-5555555555555555--------------------------------------|
PM ..  ................ ................

Prechorus

Guitar 1

e|---------------------------------------------------------------------------|
B|---------------------------------------------------------------------------|
G|----77-7~--55-5~--5555--7--------------------------------------------------|
D|----77-7~--55-5~--5555--7-(36x)--------------------------------------------|
A|----55-5~--33-3~--3333--5--------------------------------------------------|
D|---------------------------------------------------------------------------|

e|---------------------------------------------------------------------------|
B|---------------------------------------------------------------------------|
G|------14~-----12~-------10-------------------------------------------------|
D|-------x-------x---------x-(36x)-------------------------------------------|
A|------12~-----10~--------8-------------------------------------------------|
D|---------------------------------------------------------------------------|

Chorus

Guitar 1

e|---------------------------------------------------------------------------|
B|---------------------------------------------------------------------------|
G|-------10~------10~-------10~----10----------------------------------------|
D|-------10~------10~-------10~----10----------------------------------------|
A|--------8~-------8~--------8~-----8----------------------------------------|
D|---------------------------------------------------------------------------|

Guitar 2

e|---------------------------------------------------------------------------|
B|---------------------------------------------------------------------------|
G|---------------------------------------------------------------------------|
D|---3~-------7~-------5~-------7~----7/3-----------------------7------------|
A|---3~-------7~-------5~-------7~----7/3—-(First ending)--7777-7—(second)---|
D|---3~-------7~-------5~-------7~----7/3------------------7777-7------------|
PM                                                    ....

Play Intro II once
Play Verse
(Guitar 1 plays Intro 1, but the notes are picked continuously to the rhythm)
Play Prechorus
Play Chorus


Bridge

Both Guitars

e|---------------------------------------------------------------------------|
B|---------------------------------------------------------------------------|
G|--10101010-10-1010-10101010--7777-7-77-7777—10101010-10-1010-10101010------|
D|--10101010-10-1010-10101010--7777-7-77-7777-10101010-10-1010-10101010------|
A|---8-8-8-8--8--8-8--8-8-8-8--5555-5-55-5555--8-8-8-8--8--8-8--8-8-8-8------|
D|---------------------------------------------------------------------------|

The chords below that I only placed once are played eight times

e|---------------------------------------------------------------------------|
B|---------------------------------------------------------------------------|
G|--7777-7--7-7~-7-7~---10---7----5----7----10----7----5-------7-------------|
D|--7777-7--7-7~-7-7~---10---7----5----7----10----7----5—(16x)-7-(16x)-------|
A|--5555-5--5-5~-5-5~----8---5----3----5-----8----5----3-------5-------------|
D|---------------------------------------------------------------------------|
PM          .    .


Prechorus 2 (Chords played 16x each)

e|-0--0----------------------------------------------------------------------|
B|-1--0----------------------------------------------------------------------|
G|-0--0----------------------------------------------------------------------| (2x)
D|-2--2----------------------------------------------------------------------|
A|-3--2----------------------------------------------------------------------|
D|---------------------------------------------------------------------------|

Play Chorus


Ending chorus (Chords played 8x each)

e|---------------------------------------------------------------------------|
B|---------------------------------------------------------------------------|
G|---------------------------------------------------------------------------|
D|--3---5---7---5------------------------------------------------------------|
A|--3---5---7---5------------------------------------------------------------|
E|--3---5---7---5------------------------------------------------------------|

Play Intro 2

8- Dance Hall Drug: Tabbed by todayspick

Intro
e  l-------------------------------------------------------------------------|l
b  l-------------------------------------------------------------------------|l
g  l-------7-7-7-7-7-7-----7-5-7-5-------------------------------------------|l
d  l-------7-7-7-7-7-7-----7-5-7-5-------------------------------------------|l
a  l-------5-5-5-5-5-5-----5-3-5-3-------------------------------------------|l
E l--------------------------------------------------------------------------|l
“Grown up- she just turned 16, Stuck in the moment, dead at the scene, and it’s on
This is the life that you wanted, right? So turn off all the lights, dressed up just like a
star, at all the parties, they’ll know who you are, wouldn’t it be great, to be
late, so why don’t you wait, ‘til you’re sedated.”

Pre-Chorus
e  l-----------------------------------------------------------------------|l
b  l-----------------------------------------------------------------------|l
g  l-----7-----------------------------------------------------------------|l
d  l-----7----2----5----7--------------------------------------------------|l
a  l-----5----2----5----7--------------------------------------------------|l
E  l----------0----3----5--------------------------------------------------|l
“Don’t it feel like, something’s not right, in his kiss tonight?”


Chorus
e  l----------------------------------------------------------------------|l
b  l----------------------------------------------------------------------|l
g  l----7---9---12-------------7---9---12---------------------------------|l
d  l----7---9---12---2---7-----7---9---12---5---7-------------------------|l
a  l----5---7---10---2---7-----5---7---10---5---7-------------------------|l
E  l--------0--------0---5---------0--------3---5-------------------------|l
“All I’m saying is do you, do you want to lose it all? ‘Cause this is more that just a
hall drug, you can’t wait to fall in love. All I’m saying is do you do you want to learn
fly? Then you should pack it up and say goodbye, ‘Cause when the push comes to the
it’s just a dance hall drug.”

Verse
e  l-------------------------------------------------------------------------|l
b  l-------------------------------------------------------------------------|l
g  l-------7-7-7-7-7-7-----7-5-7-5-------------------------------------------|l
d  l-------7-7-7-7-7-7-----7-5-7-5-------------------------------------------|l
a  l-------5-5-5-5-5-5-----5-3-5-3-------------------------------------------|l
E l--------------------------------------------------------------------------|l
“Step in and you can lock the door, the candles are lit and the clothes on the floor,
can take a chance on finding romance, now you’re holding hands, but he’s got other plans.
the clock is turning red, the room won’t stop spinning and thoughts in your head, and
too late. You feel like you’re making a big mistake. You should’ve waited.”

Pre-Chorus
e  l-----------------------------------------------------------------------|l
b  l-----------------------------------------------------------------------|l
g  l-----7-----------------------------------------------------------------|l
d  l-----7----2----5----7--------------------------------------------------|l
a  l-----5----2----5----7--------------------------------------------------|l
E  l----------0----3----5--------------------------------------------------|l
“Don’t it feel like, something’s not right, in his kiss tonight?”

Chorus
e  l----------------------------------------------------------------------|l
b  l----------------------------------------------------------------------|l
g  l----7---9---12-------------7---9---12---------------------------------|l
d  l----7---9---12---2---7-----7---9---12-----5---7-----------------------|l
a  l----5---7---10---2---7-----5---7---10-----5---7-----------------------|l
E  l--------0--------0---5---------0----------3---5-----------------------|l
“All I’m saying is do you, do you want to lose it all? ‘Cause this is more that just a
hall drug, you can’t wait to fall in love. All I’m saying is do you do you want to learn
fly? Then you should pack it up and say goodbye, ‘Cause when the push comes to the
it’s just a dance hall drug.”

Refrain
e  l-------------------------------------------------------------------------|l
b  l-------------------------------------------------------------------------|l
g  l-------7--------7--------------------------------------------------------|l
d  l-------7---7----7---7----------------------------------------------------|l
a  l-------5---7----5---7----------------------------------------------------|l
E  l-----------5--------5----------------------------------------------------|l
“Just wait, love, show ‘em what you’re made of.”

Pre-Chorus
e  l-----------------------------------------------------------------------|l
b  l-----------------------------------------------------------------------|l
g  l-----7-----------------------------------------------------------------|l
d  l-----7----2----5----7--------------------------------------------------|l
a  l-----5----2----5----7--------------------------------------------------|l
E l-----------0----3----5--------------------------------------------------|l
“Don’t it feel like, something’s not right, in his kiss tonight?”

Bridge
e  l--------------------------------------------------------------------------|l
b  l--------------------------------------------------------------------------|l
g  l-------7--------9--------12--------5-------5~ ----------------------------|l
d  l------ 7 –x8----9-x8-----12-x8-----5-x4----5~ ----------------------------|l
a  l-------5--------7--------10--------3-------3~ ----------------------------|l
E  l--------------------------------------------------------------------------|l
“All I’m saying is do you, do you want to lose it all? ‘Cause this is more that just a
hall drug, you can’t wait to fall in love”

Chorus
e  l----------------------------------------------------------------------|l
b  l----------------------------------------------------------------------|l
g  l----7---9---12-------------7---9----12--------------------------------|l
d  l----7---9---12---2---7-----7---9----12---5---7------------------------|l
a  l----5---7---10---2---7-----5---7----10---5---7------------------------|l
E  l--------0--------0---5---------0---------3---5------------------------|l
“All I’m saying is do you, do you want to lose it all? ‘Cause this is more that just a
hall drug, you can’t wait to fall in love. All I’m saying is do you do you want to learn
fly? Then you should pack it up and say goodbye, ‘Cause when the push comes to the
it’s just a dance hall drug.”

9-Learning To Fall: Tabbed by: Barbossaboots

Verse 1
e--33333333-33333333--------------------|
B--33333333-44444444-66666666-11111111--|\
G--33333333-33333333-77777777-22222222--| \
D--44444444-44444444-88888888-33333333--| / X 3
A---------------------------------------|/
E---------------------------------------|

Pre-Chorus
e------3---3~--|\-------|
B------3---4~-----------| \
G------3---3~-----------|  \
D------5---5~--|  / X 2-|
A-----------------------| /
E-----------------------|
 "I keep it hidden...

Chorus
e---------------------------------------------|\-------|
B------------------------------------------------------| \
G---1010101010101010---------33333333------------------|  \
D---1010101010101010-3333333-33333333-33333333|  / X 2-|
A---8-8-8-8-8-8-8-8--3333333-11111111-33333333---------| /
E--------------------1111111----------11111111---------|
 "I'm learning to fall...

Verse 2
e-----------------------------------------------|\-------|
B--------------------------------------------------------| \
G---1010101010101010----------55555555-------------------|  \
D---1010101010101010-55555555-55555555-88888888-|  / X 2-|
A---8-8-8-8-8-8-8-8--55555555-33333333-88888888----------| /
E--------------------33333333----------66666666----------|
 "Could you be with him...
e--33333333-33333333--------------------|
B--33333333-44444444-66666666-11111111--|\
G--33333333-33333333-77777777-22222222--| \
D--44444444-44444444-88888888-33333333--| / X 1
A---------------------------------------|/
E---------------------------------------|
 "You Change your close and your hair...

Pre-Chorus
e------3---3~--|\            e--------------|\-------|
B------3---4~--| \           B-----------------------| \
G------3---3~--|  \          G-----------------------|  \
D------5---5~--|  / X 2      D------3-------|  / X 1-|
A--------------| /           A------3----------------| /
E--------------|/            E------1----------------|
"I'm uninvited...                 ... Inside"

Chorus
e---------------------------------------------|\-------|
B------------------------------------------------------| \
G---1010101010101010---------33333333------------------|  \
D---1010101010101010-3333333-33333333-33333333|  / X 2-|
A---8-8-8-8-8-8-8-8--3333333-11111111-33333333---------| /
E--------------------1111111----------11111111---------|
 "I'm learning to fall...

Riff
e-----------------------------------------------------|\-------|
B--------------------------------------------------------------| \
G---1010101010101010---------33333333--------------------------|  \
D---1010101010101010-3333333-33333333-33333333---|--5-|  / X 2-|
A---8-8-8-8-8-8-8-8--3333333-11111111-33333333---|--5----------| /
E--------------------1111111----------11111111---|--3----------|
 "I can't stop dreaming...                         Me"

Chorus (Fade out
e---------------------------------------------|\-|
B------------------------------------------------| \
G---1010101010101010---------33333333------------|  \
D---1010101010101010-3333333-33333333-33333333---|  / Fade out...
A---8-8-8-8-8-8-8-8--3333333-11111111-33333333---| /
E--------------------1111111----------11111111---|
 "I'm learning to fall...

10- Heels Over Head: Tabbed by: Little_Buster

Intro (Palm Mute)
e|-----------------------------------------------------------------|
B|-----------------------------------------------------------------|
G|---------------------------------3-3-3-3-3-3-3-3-3-3-3-3-3-3-3-3-|
D|-3-3-3-3-3-3-3-3-3-3-3-3-3-3-3-3-3-3-3-3-3-3-3-3-3-3-3-3-3-3-3-3-|
A|-3-3-3-3-3-3-3-3-3-3-3-3-3-3-3-3-1-1-1-1-1-1-1-1-1-1-1-1-1-1-1-1-|
E|-1-1-1-1-1-1-1-1-1-1-1-1-1-1-1-1---------------------------------|

Intro (Continued,No Palm Mute)
e|---------------------------|
B|---------------------------|
G|---------------------------|
D|-12-12--10-10--8-----------| x 2
A|-12-12--10-10--8-----------|
E|-10-10---8--8--6-----------|

Pre Chorus
e|-------------------------------|
B|-------------------------------|
G|-3-3-3-3-3-3-3-3----2/12\8-----|
D|-3-3-3-3-3-3-3-3----2/12\8-----|
A|-1-1-1-1-1-1-1-1----0/10\6-----|
E|-------------------------------|

Chorus
e|----------------------------------|
B|----------------------------------|
G|----5-5---------------5-5---------|
D|-3--5-5--7-8--8-8--3--5-5--5--8-8-|
A|-3--3-3--7-8--8-8--3--3-3--5--8-8-|
E|-1-------5-6--6-6--1-------3/-6-6-|

Then Repeat it all, And then Play

e|---------------------|
B|---------------------|
G|---------------------|
D|-5--8-8--------------|
A|-5--8-8--------------|
E|-3/-6-6--------------|

Chorus                      Outro
e|----------------------------------|
B|----------------------------------|
G|----5-5---------------5-5---------|
D|-3--5-5--7-8--8-8--3--5-5--5--8-8-|
A|-3--3-3--7-8--8-8--3--3-3--5--8-8-|
E|-1-------5-6--6-6--1-------3/-6-6-|


11- Broken Man: Tabbed by: KrayzeeD

Tuning: Drop-D (DADGBe)
Capo: None

Any questions or comments, feel free to e-mail me: agurley13@gmail.com

The Intro may or may not be right.  When I play it with a delay pedal, it sounds like
actual song.  He probably just does some different picking timings than I do or can tab out.

I could use a hand with the lead part on the chorus (sounds like quick, short, high
I can't seem to get them down.  Maybe if I had better speakers with better high-end, but I
So if you've got it figured out, e-mail me and I'll throw it in the tab.

Also, there's probably not actually 3 guitars in the song - I assume the lead just uses
loop for the intro riff and plays what I have as Guitar II in the verse.  But for the
of the tab and the fact that not everyone out there owns a loop pedal, I made a 3rd part.

****************************************************************************

*Intro*:

(Guitar I - clean, with delay pulse and very light distortion)
e--------------------------------|
B--------------------------------|
G--7-------6-------4-------------|
D-----7-------7-------7----7--7--|
A--------------------------------|
D--------------------------------|


*Verse*:

(Guitar I repeats intro)


(Guitar II - light distortion)
e-----------------------------------------------------------|
B-------------------5--5------------------------------------|  *let all chords
G--7----9------11---7--6------------------------------------|   ring (and see note underneath)
D--7----7--11--9----5---------------------------------------|  x2
A--5----7--7---9----5---------------------------------------|
D--0----7------9----5---------------------------------------|
  note: ^---these---^ two chords ring over the following 2--|note chord


(Guitar III - clean - acoustic in recording)
e----------------------|
B--7-------------------|  *let each chord ring
G--7----9----11---7----|
D--0----7----9----5----|  x2
A--0----7----9----5----|
D--0----7----9----5----|


*Pre-Chorus*:

(Guitar II - palm muted)
e--------------------------|
B--------------------------|
G--------------------------|
D--4-----5-----4-----5-----|
A--4-x8--5-x8--4-x8--5-x5--|
D--4-----5-----4-----5-----|


*Chorus*:

(Guitar I - don't know yet, see notes at beginning of tab)

(Guitar II - distortion)
e----------------------------------------      |-----|
B----------------------------------------      |-----|
G--7-------------------------------------      |--7--|
D--7-----9-----5-----4-----5--5--5--5-7--  x2  |--7--|
A--5-x8--9-x8--5-x8--4-x3--5--5--5--5-7--      |--5--|
D--0-----9-----5-----4-----5--5--5--5-7--      |--0--|


*Repeat verse*


*Pre-Chorus*:

(Guitar I - clean or light distortion)
e----------------------------------------------------------------------|
B----------------------------------------------------------------------|
G--6---6---6---6---7---7---7---7---6---6---6---6---7-------------------|
D----7---7---7---7---7---7---7---7---7---7---7---7---------------------|
A----------------------------------------------------------------------|
D----------------------------------------------------------------------|

(Guitar II)
e--------------------------|
B--------------------------|
G--------------------------|
D--4-----5-----4-----5-----|
A--4-x8--5-x8--4-x8--5-x5--|
D--4-----5-----4-----5-----|


*Repeat Chorus*


*Bridge*:

(Guitar I - very light distortion - palm muted)
e--------------------------------|
B--------------------------------|
G--------------------------------|
D--7------9----------------------|
A--5-x16--7-x16--9------5--------|
D----------------9-x16--5-x16----|

(heavy distortion)
e--------------------------------|
B--------------------------------|
G--7------9----------------------|
D--7------9------9------5--------|
A--5-x16--7-x16--9------5--------|
D----------------9-x16--5-x16----|

e--------------------------------|
B--------------------------------|
G--7----9------------------------|
D--7----9----9----5--5--5--5--5--|  *let chords ring except those indicated
A--5----7----9----5--5--5--5--5--|    with p.m.
D------------9----5--5--5--5--5--|
                  .  .  .  .  .   <-----p.m.


(Guitar II - light distortion)
e-----------------------|
B-----------------------|
G-----------------------|
D-----------------------|  x4
A--9-9-9-9-9-9-9h10p9---|
D-----------------------|

e--------------------------------|
B--------------------------------|
G--7----9------------------------|
D--7----9----9----5--5--5--5--5--|  *let chords ring except those indicated
A--5----7----9----5--5--5--5--5--|    with p.m.
D------------9----5--5--5--5--5--|
                  .  .  .  .  .   <-----p.m.


Final Chorus:

(Guitar I - don't know yet, see notes at beginning of tab)

(Guitar II - heavy distortion)
e------------------------------------------|
B-----------------------------------7h8p7--|
G--7---------------------------------------|
D--7-----9-----5-----4-----5--5--5---------|
A--5-x8--9-x8--5-x8--4-x3--5--5--5---------|
D--0-----9-----5-----4-----5--5--5---------|

e--------------------------------------|
B--------------------------------------|
G--7-----------------------------------|
D--7-----9-----5-----4-----5--5--5--5--|
A--5-x8--9-x8--5-x8--4-x3--5--5--5--5--|
D--0-----9-----5-----4-----5--5--5--5--|

e-----------------------------------------------------|
B-----------------------------------------------------|
G--7-----9-----------------7-----9--------------------|
D--7-----9-x8--9-----5-----7-----9-x8--9-----4--4--5--|  *let last chord ring
A--5-x8--7-----9-x8--5-x8--5-x8--7-----9-x8--4--4--5--|
D--0-----------9-----5-----0-----------9-----4--4--5--|

12- Holiday: Tabbed by: Barbossaboots

Intro/ Whole verse
e----------12----12---12------|\-|
B---12-12-----12----12---12------| \
G-----9---9--9--9--9----9--9-----|  \
D--------------------------------|  /  A bunch of Times
A--------------------------------| /
E--------------------------------|

Chorus
e------------------------------------------------------|\----|
B-----------------------------9~~----------------------------| \
D--9~~-------------2~~--244~--7~~--9~~--11~~--42~~--244------|  \
G--9~~--9~~--11~~--2~~--244~--9~~--9~~--11~~--42~~--244| ----| X1
A--7~~--9~~--11~~--0~~--022~--7~~--7~~--9-~~--20~~--022------| /
E--7~~--7~~--9-~~--0~~---------------------------------------|

Verse 2
Guitar 1 (Electric)
e----------12----12---12------|\-|
B---12-12-----12----12---12------| \
G-----9---9--9--9--9----9--9-----|  \
D--------------------------------|  /  A bunch of Times
A--------------------------------| /
E--------------------------------|
Guitar 2 (Acustic Strumming)
e--------------------------------|\-|
B-----------------------------------| \
D-------------------------2---------|  \
G--9------9------11-------2---------|  / A bunch of Times
A--7-X(8)-9-x(8)-11-x(8)--0-x(8)----| /
E--7------7------9--------0---------|

Chorus
e------------------------------------------------------|\----|
B-----------------------------9~~----------------------------| \
D--9~~-------------2~~--244~--7~~--9~~--11~~--42~~--244------|  \
G--9~~--9~~--11~~--2~~--244~--9~~--9~~--11~~--42~~--244| ----| X1
A--7~~--9~~--11~~--0~~--022~--7~~--7~~--9-~~--20~~--022------| /
E--7~~--7~~--9-~~--0~~---------------------------------------|

Riff 1 (I Can't get it but this works)
e--------------------------------|\-----|
B---------------------------------------| \
D-------------------------2-------------|  \
G--9------9------11-------2------|  / 2-|
A--7-X(8)-9-x(8)-11-x(8)--0-x(8)--------| /
E--7------7------9--------0-------------|

Verse 3
Guitar 1 (Electric)
e----------12----12---12------|\--------|
B---12-12-----12----12---12-------------| \
G-----9---9--9--9--9----9--9------------|  \
D-----------------------------|  /  X 2-|
A---------------------------------------| /
E---------------------------------------|
Guitar 2 (Acustic Strumming)
e--------------------------------|\-------|
B-----------------------------------------| \
D-------------------------2---------------|  \
G--9------9------11-------2------|  / X 2-|
A--7-X(8)-9-x(8)-11-x(8)--0-x(8)----------| /
E--7------7------9--------0---------------|

Chorus (Again)
e------------------------------------------------------|\----|
B-----------------------------9~~----------------------------| \
D--9~~-------------2~~--244~--7~~--9~~--11~~--42~~--244------|  \
G--9~~--9~~--11~~--2~~--244~--9~~--9~~--11~~--42~~--244| ----| X1
A--7~~--9~~--11~~--0~~--022~--7~~--7~~--9-~~--20~~--022------| /
E--7~~--7~~--9-~~--0~~---------------------------------------|

Riff 3
Guitar 1 (Electric)
e----------12----12---12------|\-|
B---12-12-----12----12---12------| \
G-----9---9--9--9--9----9--9-----|  \
D--------------------------------|  /  A bunch of Times
A--------------------------------| /
E--------------------------------|
Guitar 2 (Acustic Strumming)
e--------------------------------|\-|
B-----------------------------------| \
D-------------------------2---------|  \
G--9------9------11-------2---------|  / A bunch of Times
A--7-X(8)-9-x(8)-11-x(8)--0-x(8)----| /
E--7------7------9--------0---------|
 Keep playing until song ends.
comments
We did not receive enough feedback on this tab! Please rate:
print report bad tab
1 2 3 4 5
4 comments total. Showing first comments.
+1 reply
hendrixfreak93 wrote on February 12 2008, 06:42 pm

who accepted this sh*t?
you have "me you and my medication" the same as "up against the wall,"
not to mention the same section is posted like 10 times.

+1 reply
JNinja wrote on August 19 2008, 06:10 pm

Yeah um the only song that's actually almost completely right is HeroHeroine. Everything else is pretty off.

+1 reply
guitargurl317 wrote on August 19 2008, 11:52 pm

keep in mid tht i didnt write theez tabz. i took it frum evry1 else here on UG. im prtty sure i said tht in the beginning.

I want to post or [tab]
guest
You may want to rate the tab now too:
select rating
Please do not post tabs as comments. Select "correction" instead!