Oops, an error
Loading. Please wait.

Great Escape Tab

ver9
ver9
More versions @911Tabs.com
2,026 views 6 this week
no commentswrite comment
1 2 3 4 5
excellent!
x 1
Autoscroll
+/-
esc
set tempo
stop
Contributor
Hey! There's an official Ultimate Guitar app which is ideal
for learning songs when you're away from computer. Get the app
WARNING: You are trying to view
                                    content from Ultimate-Guitar.com
                                    in an unauthorized application,
                                    which is prohibited.

                                    Please use an official Ultimate
                                    Guitar Tabs application for iPhone,
                                    iPad or Android to access legitimate
                                    chords, guitar, bass, and drum tabs
                                    from Ultimate-Guitar.com database.

                                    Type "ultimate guitar tabs" in Apple
                                    App Store's or Android Market's
                                    search to find the application.
-------------------------------------------------------------------------------
                             THE GREAT ESCAPE - Boys Like Girls
-------------------------------------------------------------------------------
Tabbed by:jack
Email:jg3born@yahoo.com

in the song the lead guitar is played in drop d tuning and the rythem guitar is 
played in open d tuning
Lead:(Paul) DADGBe
Rythem:(Martin) DADF#Da with a capo on the second fret
INTRO (LEAD)
e|--------------------------------------------------------------------------------------------|
B)--------17----------17----------17-------17----------17----------17----------17-------17----|
G)-----16----16----16----16----16-------16----16----16----16----16----16----16-------16----16-|
D)--14----------13-------------------------------14----------13-------------------------------|
A)--------------------------16-------14----------------------------------16-------14----------|
E)--------------------------------------------------------------------------------------------|
INTRO CONTINUED (LEAD)
e|--------------------------------------------------------------------------------------------|
B)--------17----------17----------17-------17----------17----------17----------17-------17----|
G)-----16----16----16----16----16-------16----16----16----16----16----16----16-------16----16-|
D)--14----------13-------------------------------14----------13-------------------------------|
A)--------------------------16-------14----------------------------------16-------14----------|
E)--------------------------------------------------------------------------------------------|
INTRO (RYTHEM)
e|--0--------------------------------0--------------------------------------------------------|
B|--0--------------------------------0--------------------------------------------------------|
G|--13-------------------------------12-------------------------------------------------------|
D|--0--------------------------------0--------------------------------------------------------|
A|--10-------------------------------9-------------------------------------------------------|
E|--0--------------------------------0--------------------------------------------------------|
INTRO CONTINUED (RYTHEM)
e|--0--------------------------------------------0---------------------------|
B|--0--------------------------------------------0---------------------------|
G|--13-------------------------------------------12--------------------------|
D|--0--------------------------------------------0---------------------------|
A|--10-------------------------------------------9---------------------------|
E|--0--------------------------------------------0---------------------------|
VERSE (LEAD)
e|--------------------------------------------------------------------------------------------|
B)--------17----------17----------17-------17----------17----------17----------17-------17----|
G)-----16----16----16----16----16-------16----16----16----16----16----16----16-------16----16-|
D)--14----------13-------------------------------14----------13-------------------------------|
A)--------------------------16-------14----------------------------------16-------14----------|
E)--------------------------------------------------------------------------------------------|
VERSE (RYTHEM)
e|--0--------------------------------------------0--------------------------------------------|
B|--0--------------------------------------------0--------------------------------------------|
G|--0--------------------------------------------0--------------------------------------------|
D|--9--------------------------------------------5--------------------------------------------|
A|--9--------------------------------------------5--------------------------------------------|
E|--9--------------------------------------------5--------------------------------------------|
VERSE CONTINUED (LEAD)
e|-----------------------------------------------------------------------------------------------|
B)--------17----------17----------17-------17----------17----------17----------17-------17-----17|
G)-----16----16----16----16----16-------16----16----16----16----16----16----16-------16----16--16|
D)--14----------13-------------------------------14----------13--------------------------------14|
A)--------------------------16-------14----------------------------------16-------14-------------|
E)-----------------------------------------------------------------------------------------------|
VERSE CONTINUED (RYTHEM)
e|--0--------------------------------------------0----------------------------------------------0|
B|--0--------------------------------------------0----------------------------------------------0|
G|--0--------------------------------------------0----------------------------------------------0|
D|--0--------------------------------------------7----------------------------------------------5|
A|--0--------------------------------------------7----------------------------------------------5|
E|--0--------------------------------------------7----------------------------------------------5|
CHORUS (LEAD)
e|---------------------------------------------------------------------------|
B|---------------------------------------------------------------------------|
G|---------------------------------------------------------------------------|
D|--11--7--2--9--11--7--2--9-------------------------------------------------|
A|--11--7--2--9--11--7--2--9-------------------------------------------------|
E|--11--7--2--9--11--7--2--9-------------------------------------------------|
CHORUS (RYTHEM)
e|--0--0--0--0--0--0--0--0---------------------------------------------------|
B|--0--0--0--0--0--0--0--0---------------------------------------------------|
G|--0--0--0--0--0--0--0--0---------------------------------------------------|
D|--9--5--0--7--9--5--0--7---------------------------------------------------|
A|--9--5--0--7--9--5--0--7---------------------------------------------------|
E|--9--5--0--7--9--5--0--7---------------------------------------------------|
CHORUS CONTINUED (LEAD)
e|-----5-----5---------------5---------------5-------------------------------|
B|-3-3---3-3---3-3-7-7-7-7-7---7-7-8-8-8-8-8---8-8-10------------------------|
G|---------------------------------------------------------------------------|
D|---------------------------------------------------------------------------|
A|---------------------------------------------------------------------------|
E|---------------------------------------------------------------------------|
CHORUS CONTINUED (RYTHEM)
e|-0---------------0---------------0---------------0-------------------------|
B|-0---------------0---------------0---------------0-------------------------|
G|-0---------------0---------------0---------------0-------------------------|
D|-2---------------4---------------5---------------7-------------------------|
A|-2---------------4---------------5---------------7-------------------------|
E|-2---------------4---------------5---------------7-------------------------|
INTRO 2 (LEAD)
e|--------------------------------------------------------------------------------------------|
B)--------17----------17----------17-------17----------17----------17----------17-------17----|
G)-----16----16----16----16----16-------16----16----16----16----16----16----16-------16----16-|
D)--14----------13-------------------------------14----------13-------------------------------|
A)--------------------------16-------14----------------------------------16-------14----------|
E)--------------------------------------------------------------------------------------------|
INTRO 2 (RYTHEM)
e|--0--------------------------------0--------------------------------------------------------|
B|--0--------------------------------0--------------------------------------------------------|
G|--13-------------------------------12-------------------------------------------------------|
D|--0--------------------------------0--------------------------------------------------------|
A|--10-------------------------------8--------------------------------------------------------|
E|--0--------------------------------0--------------------------------------------------------|
INTRO 2 CONTINUED (RYTHEM)
e|--0--------------------------------0---------------------------------------|
B|--0--------------------------------0---------------------------------------|
G|--13-------------------------------12--------------------------------------|
D|--0--------------------------------0---------------------------------------|
A|--10-------------------------------9---------------------------------------|
E|--0--------------------------------0---------------------------------------|
VERSE 2 (LEAD)
e|--------------------------------------------------------------------------------------------|
B)--------17----------17----------17-------17----------17----------17----------17-------17----|
G)-----16----16----16----16----16-------16----16----16----16----16----16----16-------16----16-|
D)--14----------13-------------------------------14----------13-------------------------------|
A)--------------------------16-------14----------------------------------16-------14----------|
E)--------------------------------------------------------------------------------------------|
VERSE 2 (RYTHEM)
e|--0--------------------------------------------0--------------------------------------------|
B|--0--------------------------------------------0--------------------------------------------|
G|--0--------------------------------------------0--------------------------------------------|
D|--9--------------------------------------------5--------------------------------------------|
A|--9--------------------------------------------5--------------------------------------------|
E|--9--------------------------------------------5--------------------------------------------|
VERSE 2 CONTINUED (LEAD)
e|-----------------------------------------------------------------------------------------------|
B)--------17----------17----------17-------17----------17----------17----------17-------17-----17|
G)-----16----16----16----16----16-------16----16----16----16----16----16----16-------16----16--16|
D)--14----------13-------------------------------14----------13--------------------------------14|
A)--------------------------16-------14----------------------------------16-------14-------------|
E)-----------------------------------------------------------------------------------------------|
VERSE 2 CONTINUED (RYTHEM)
e|--0--------------------------------------------0----------------------------------------------0|
B|--0--------------------------------------------0----------------------------------------------0|
G|--0--------------------------------------------0----------------------------------------------0|
D|--0--------------------------------------------7----------------------------------------------5|
A|--0--------------------------------------------7----------------------------------------------5|
E|--0--------------------------------------------7----------------------------------------------5|
CHORUS (LEAD)
e|---------------------------------------------------------------------------|
B|---------------------------------------------------------------------------|
G|---------------------------------------------------------------------------|
D|--11-7--2--9--11-7--2--9---------------------------------------------------|
A|--11-7--2--9--11-7--2--9---------------------------------------------------|
E|--11-7--2--9--11-7--2--9---------------------------------------------------|
CHORUS (RYTHEM)
e|--0--0--0--0--0--0--0--0---------------------------------------------------|
B|--0--0--0--0--0--0--0--0---------------------------------------------------|
G|--0--0--0--0--0--0--0--0---------------------------------------------------|
D|--9--5--0--7--9--5--0--7---------------------------------------------------|
A|--9--5--0--7--9--5--0--7---------------------------------------------------|
E|--9--5--0--7--9--5--0--7---------------------------------------------------|
CHORUS CONTINUED (LEAD)
e|-----5-----5---------------5---------------5-------------------------------|
B|-3-3---3-3---3-3-7-7-7-7-7---7-7-8-8-8-8-8---8-8-10------------------------|
G|---------------------------------------------------------------------------|
D|---------------------------------------------------------------------------|
A|---------------------------------------------------------------------------|
E|---------------------------------------------------------------------------|
CHORUS CONTINUED (RYTHEM)
e|-0---------------0---------------0---------------0-------------------------|
B|-0---------------0---------------0---------------0-------------------------|
G|-0---------------0---------------0---------------0-------------------------|
D|-2---------------4---------------5---------------7-------------------------|
A|-2---------------4---------------5---------------7-------------------------|
E|-2---------------4---------------5---------------7-------------------------|
BRIDGE (LEAD)
e|---------------------------------------------------------------------------|
B|---------------------------------------------------------------------------|
G|---------------------------------------------------------------------------|
D|--9--5--0--7---------------------------------------------------------------|
A|--9--5--0--7---------------------------------------------------------------|
E|--9--5--0--7---------------------------------------------------------------|
BRIDGE (RYTHEM)
e|--0--0--0--0---------------------------------------------------------------|
B|--0--0--0--0---------------------------------------------------------------|
G|--0--0--0--0---------------------------------------------------------------|
D|--5--0--2--7---------------------------------------------------------------|
A|--5--0--2--7---------------------------------------------------------------|
E|--5--0--2--7---------------------------------------------------------------|
SOLO (LEAD)
E|---------------------------------------------------------------------------------|
B|---------------------------------------------------------------------------------|
G|--13--11-9--13--14--16--13--11-9--16--14--13--13--11-9--8---14--16--13-11--9--8--|
D|--X---X--X--X---X---X---X---X--X--X---X---X---X---X--X--X---X---X---X---X--X--X--|
A|--11--9--7--11--12--14--11--9--7--14--12--11--11--9--7--11--12--14--11--9--7--6--|
E|---------------------------------------------------------------------------------|
SOLO (RYTHEM)
e|--0---------0-----------0---------0-----------0---------0-----------0---------0--|
B|--0---------0-----------0---------0-----------0---------0-----------0---------0--|
G|--0---------0-----------0---------0-----------0---------0-----------0---------0--|
D|--9---------5-----------0---------7-----------9---------5-----------0---------7--|
A|--9---------5-----------0---------7-----------9---------5-----------0---------7--|
E|--9---------5-----------0---------7-----------9---------5-----------0---------7--|
CHORUS 3 (LEAD)
e|---------------------------------------------------------------------------|
B|---------------------------------------------------------------------------|
G|---------------------------------------------------------------------------|
D|--11-7--2--9--11-7--2--9--11-7--2--9--11-7--2--9---------------------------|
A|--11-7--2--9--11-7--2--9--11-7--2--9--11-7--2--9---------------------------|
E|--11-7--2--9--11-7--2--9--11-7--2--9--11-7--2--9---------------------------|
CHORUS 3 (RYTHEM)
e|--0--0--0--0--0--0--0--0--0--0--0--0--0--0--0--0---------------------------|
B|--0--0--0--0--0--0--0--0--0--0--0--0--0--0--0--0---------------------------|
G|--0--0--0--0--0--0--0--0--0--0--0--0--0--0--0--0---------------------------|
D|--9--5--0--7--9--5--0--7--9--5--0--7--9--5--0--7---------------------------|
A|--9--5--0--7--9--5--0--7--9--5--0--7--9--5--0--7---------------------------|
E|--9--5--0--7--9--5--0--7--9--5--0--7--9--5--0--7---------------------------|
CHORUS 3 CONTINUED (LEAD)
e|-----5-----5---------------5---------------5-------------------------------|
B|-3-3---3-3---3-3-7-7-7-7-7---7-7-8-8-8-8-8---8-8-10------------------------|
G|---------------------------------------------------------------------------|
D|---------------------------------------------------------------------------|
A|---------------------------------------------------------------------------|
E|---------------------------------------------------------------------------|
CHORUS 3 CONTINUED (RYTHEM)
e|-0---------------0---------------0---------------0-------------------------|
B|-0---------------0---------------0---------------0-------------------------|
G|-0---------------0---------------0---------------0-------------------------|
D|-2---------------4---------------5---------------7-------------------------|
A|-2---------------4---------------5---------------7-------------------------|
E|-2---------------4---------------5---------------7-------------------------|
OUTRO (LEAD)
e|--------------------------------------------------------------------------------------------|
B)--------17----------17----------17-------17----------17----------17----------17-------17----|
G)-----16----16----16----16----16-------16----16----16----16----16----16----16-------16----16-|
D)--14----------13-------------------------------14----------13-------------------------------|
A)--------------------------16-------14----------------------------------16-------14----------|
E)--------------------------------------------------------------------------------------------|
OUTRO (RYTHEM)
e|--0--------------------------------0--------------------------------------------------------|
B|--0--------------------------------0--------------------------------------------------------|
G|--13-------------------------------12-------------------------------------------------------|
D|--0--------------------------------0--------------------------------------------------------|
A|--10-------------------------------9---------------------------------------------------------
E|--0--------------------------------0--------------------------------------------------------|
OUTRO CONTINUED (LEAD)
e|--------------------------------------------------------------------------------------------|
B)--------17----------17----------17-------17----------17----------17----------17-------17----|
G)-----16----16----16----16----16-------16----16----16----16----16----16----16-------16----16-|
D)--14----------13-------------------------------14----------13-------------------------------|
A)--------------------------16-------14----------------------------------16-------14----------|
E)--------------------------------------------------------------------------------------------|
OUTRO CONTINUED (RYTHEM)
e|--0--------------------------------------------0---------------------------|
B|--0--------------------------------------------0---------------------------|
G|--13-------------------------------------------12--------------------------|
D|--0--------------------------------------------0---------------------------|
A|--10-------------------------------------------9---------------------------|
E|--0--------------------------------------------0---------------------------|


| /  slide up
| \  slide down
| h  hammer-on
| p  pull-off
| ~  vibrato
| +  harmonic
| x  Mute note
===============================================================================
comments
We did not receive enough feedback on this tab! Please rate:
print report bad tab
1 2 3 4 5
I want to post or [tab]
guest
You may want to rate the tab now too:
select rating
Please do not post tabs as comments. Select "correction" instead!