Oops, an error
Loading. Please wait.

Heels Over Head Tab

ver6
ver6
More versions @911Tabs.com
418 views 1 this week
no commentswrite comment
1 2 3 4 5
please rate
Autoscroll
+/-
esc
set tempo
stop
Contributor
Hey! There's an official Ultimate Guitar app which is ideal
for learning songs when you're away from computer. Get the app
WARNING: You are trying to view
                                    content from Ultimate-Guitar.com
                                    in an unauthorized application,
                                    which is prohibited.

                                    Please use an official Ultimate
                                    Guitar Tabs application for iPhone,
                                    iPad or Android to access legitimate
                                    chords, guitar, bass, and drum tabs
                                    from Ultimate-Guitar.com database.

                                    Type "ultimate guitar tabs" in Apple
                                    App Store's or Android Market's
                                    search to find the application.
   Intro, First Verse

   Distorted

e|--------------------------------------------------------------------|-----|
B|--------------------------------------------------------------------|-----|
G|-------------------------------------------8--8-88---8--8-88--------|-888-|
D|-------8888888888888888--8888888888888888--10-8-66---10-8-66---888--|-666-|
A|-------6666666666666666--8888888888888888--10-8-66---10-8-66---888--|-666-|
D|-------------------------8888888888888888--10-8-66---10-8-66---888--|-666-|
   X2    Pm................................                      \ /    \ / 
"I got you're runaway..."                                        1st    2nd

   Clean                              

e|------6---6---6---6----------|
B|---6-6-6-6-6-6-6-6-----------|
G|----8---8---8---8------------|
D|-----------------------------|
A|-----------------------------|
D|-----------------------------|


                                  
e|----------------------------------------------------------------------|
B|-----------------------------------------------------------4----------|
G|----------------------8--8--8-88-----8-8------------8--8---3-8-8-888--|
D|------------1xx-xxxxx10-10xx5-55xxxxx6-6xx1xx-xxxxx10-10xx-3-5x6-888--|
A|------------1xx-xxxxx10-10xx5-55xxxxx6-6xx1xx-xxxxx10-10xx-3-5x6-888--|
D|------------1xx-xxxxx10-10xx5-55xxxxx6-6xx1xx-xxxxx10-10xx-3-5x6-888--|
 
"Now I'm heels over head..."
 
   Guitar 1

e|---------------------------------------------------------------|-----|
B|---------------------------------------------------------------|-----|
G|----------------------------------------8--8-88---8--8-88------|-888-|
D|----8888888888888888--8888888888888888--10-8-66---10-8-66--888-|-666-|
A|----6666666666666666--8888888888888888--10-8-66---10-8-66--888-|-666-|
D|----------------------8888888888888888--10-8-66---10-8-66--888-|-666-|
 |    Pm................................                     \ /   \ / |
 | Guitar 2                                                  1st   2nd |
 |                                                                     |
e|---------------------------------------------------------------------|
B|---------------------------------------------------------------------|
G|------7-7-7-7-7-7877----7-7-7-7-7-7877-----play-along-with-guitar-1--|
D|------8-8-8-8-8-8888----8-8-8-8-8-8888-----on-the-rest-i-guess-------|
A|---------------------------------------------------------------------|
D|---------------------------------------------------------------------|
   X2


   Clean                              

e|------6---6---6---6----------|
B|---6-6-6-6-6-6-6-6-----------|
G|----8---8---8---8------------|
D|-----------------------------|
A|-----------------------------|
D|-----------------------------|    


e|--------------------------------------------------------------------|
B|------------------------------------------------------------4-------|
G|----------------------8--8---8-88-----8-8------------8--8---3-8-8---|
D|-------------1xx-xxxxx10-10xx5-55xxxxx6-6xx1xx-xxxxx10-10xx-3-5x6---|
A|-------------1xx-xxxxx10-10xx5-55xxxxx6-6xx1xx-xxxxx10-10xx-3-5x6---|
D|-------------1xx-xxxxx10-10xx5-55xxxxx6-6xx1xx-xxxxx10-10xx-3-5x6---|
 
 "Now I'm heels over head..."

   Guitar 1

e|--------------------------------------------------------------------|
B|--------------------------------------------------4-----------------|
G|------------8--8---8-88-----8-8------------8--8---3-8-8-------------|
D|---1xx-xxxxx10-10xx5-55xxxxx6-6xx1xx-xxxxx10-10xx-3-5x6-------------|
A|---1xx-xxxxx10-10xx5-55xxxxx6-6xx1xx-xxxxx10-10xx-3-5x6-------------|
D|---1xx-xxxxx10-10xx5-55xxxxx6-6xx1xx-xxxxx10-10xx-3-5x6-------------|
 |                                                                    |
 | Guitar 2                                                           |
 |                                                                    |
e|-----6--6--6--6--6---6--6--6--6--6---6--6--6--6--6---6--6--6--6--6--|
B|--------------------------------------------------------------------|
G|---78-78-78-78-78--78-78-78-78-78--78-78-78-78-78--78-78-78-78-78---|
D|--------------------------------------------------------------------|
A|--------------------------------------------------------------------|
D|--------------------------------------------------------------------|

    "hit the coast..."
   
   GUitar 1
   
e|--------------------------------------------------------------------|
B|--------------------------------------------------------------------|
G|-88-88-88-88---88-88-88-8888---88-88-88-88---88-88-88-8888----------|
D|-55-55-55-66---55-55-55-6688---55-55-55-66---55-55-55-6688----------|
A|-55-55-55-66---55-55-55-6688---55-55-55-66---55-55-55-6688----------|
D|-55-55-55-66---55-55-55-6688---55-55-55-66---55-55-55-6688----------|
 |                                                                    |
 | Guitar 2                                                           |
 |                                                                    |
e|--------------------------------------------------------------------|
B|--------------------------------------------------------------------|
G|--------------------------------------------------------------------|
D|------------------------8-8--8-8--8-8-1010---8-8--8-8--8-8-10101212-|
A|------pick-slide----x=>1010-1010-1010-1111--1010-1010-1010-11111313-|
D|--------------------x=>---------------------------------------------|
  
    "Burning bridges baby..."

   GUitar 1
   
e|-------------------------------------------------|
B|-------------------------------------------------|
G|---88-88-88-88---88-88-88-8888-------------------|
D|---55-55-55-66---55-55-55-6688-------------------|
A|---55-55-55-66---55-55-55-6688-------------------|
D|---55-55-55-66---55-55-55-6688-------------------|
 |                                                 |
 | Guitar 2                                        |
 |                                                 |
e|-------------------------------------------------|
B|-------------------------------------------------|
G|-------------------------------------------------|
D|----8-8--8-8--8-8-1010---8-8--8-8--8-8-10101212--|
A|---1010-1010-1010-1111--1010-1010-1010-11111313--|
D|-------------------------------------------------|


   Guitar 1

e|-----------------------------------------------------|
B|-----------------------------------------------------|
G|---------------------------------------8--8-88---8---|
D|---8888888888888888--8888888888888888--10-8-66---8---|
A|---6666666666666666--8888888888888888--10-8-66---8---|
D|---------------------8888888888888888--10-8-66---8---|
 |   Pm................................                |
 |                                                     |
 | Guitar 2                                            |
 |                                                     |
e|-----------------------------------------------------|
B|-----------------------------------------------------|
G|-----------------------------------------------------|
D|---13------------------------------------------------|
A|---13------------------------------------------------|
D|-----------------------------------------------------|


e|----------------------------------------------------------------------|
B|--------------------------------------------------------------4-------|
G|--------------------------------------------------------------3-8-8---|
D|---------------1xx-xxxxx10-10xx5-55xxxxx6-6xx1xx-xxxxx10-10xx-3-5x6---|
A|---------------1xx-xxxxx10-10xx5-55xxxxx6-6xx1xx-xxxxx10-10xx-3-5x6---|
D|---------------1xx-xxxxx10-10xx5-55xxxxx6-6xx1xx-xxxxx10-10xx-3-5x6---|
 
 "Now I'm heels over head..."

   Guitar 1

e|--------------------------------------------------------------------|
B|--------------------------------------------------4-----------------|
G|-------------8--8--8-88-----8-8------------8--8---3-8-8-------------|
D|---1xx-xxxxx10-10xx5-55xxxxx6-6xx1xx-xxxxx10-10xx-3-5x6-------------|
A|---1xx-xxxxx10-10xx5-55xxxxx6-6xx1xx-xxxxx10-10xx-3-5x6-------------|
D|---1xx-xxxxx10-10xx5-55xxxxx6-6xx1xx-xxxxx10-10xx-3-5x6-------------|
 |                                                                    |
 | Guitar 2                                                           |
 |                                                                    |
e|-----6--6--6--6--6---6--6--6--6--6---6--6--6--6--6---6--6--6--6--6--|
B|--------------------------------------------------------------------|
G|---78-78-78-78-78--78-78-78-78-78--78-78-78-78-78--78-78-78-78-78---|
D|--------------------------------------------------------------------|
A|--------------------------------------------------------------------|
D|--------------------------------------------------------------------|

    "hit the coast..."

   Guitar 1

e|--------------------------------------------------------------------|
B|------------------------------------4-------------------------------|
G|---------8----8-----8----------8----3--8--8-------------------------|
D|---1----10----5-----6----1----10----3--5--6-------------------------|
A|---1----10----5-----6----1----10----3--5--6-------------------------|
D|---1----10----5-----6----1----10----3--5--6-------------------------|
 |                                                                    |
 | Guitar 2                                                           |
 |                                                                    |
e|-----6--6--6--6--6---6--6--6--6--6---6--6--6--6--6---6--6--6--6--6--|
B|--------------------------------------------------------------------|
G|---78-78-78-78-78--78-78-78-78-78--78-78-78-78-78--78-78-78-78-78---|
D|--------------------------------------------------------------------|
A|--------------------------------------------------------------------|
D|--------------------------------------------------------------------|


   Guitar 1

e|--------------------------------------------------------------------|
B|------------------------------------4-------------------------------|
G|---------8----8-----8----------8----3-8x8---------------------------|
D|---1----10----5-----6----1----10----3-5x6---------------------------|
A|---1----10----5-----6----1----10----3-5x6---------------------------|
D|---1----10----5-----6----1----10----3-5x6---------------------------|
 |                                                                    |
 | Guitar 2                                                           |
 |                                                                    |
e|-----6--6--6--6--6---6--6--6--6--6---6--6--6--6--6---6--6--6--6--6--|
B|--------------------------------------------------------------------|
G|---78-78-78-78-78--78-78-78-78-78--78-78-78-78-78--78-78-78-78-78---|
D|--------------------------------------------------------------------|
A|--------------------------------------------------------------------|
D|--------------------------------------------------------------------|


comments
We did not receive enough feedback on this tab! Please rate:
print report bad tab
1 2 3 4 5
I want to post or [tab]
guest
You may want to rate the tab now too:
select rating
Please do not post tabs as comments. Select "correction" instead!