Oops, an error
Loading. Please wait.

Alcohol Tab

ver1
ver1

Whole song

Interactive

More versions @911Tabs.com
20,860 views 24 this week
no commentswrite comment
1 2 3 4 5
worth learning
x 4
Autoscroll
+/-
esc
set tempo
stop
Hey! There's an official Ultimate Guitar app which is ideal
for learning songs when you're away from computer. Get the app
WARNING: You are trying to view
                                    content from Ultimate-Guitar.com
                                    in an unauthorized application,
                                    which is prohibited.

                                    Please use an official Ultimate
                                    Guitar Tabs application for iPhone,
                                    iPad or Android to access legitimate
                                    chords, guitar, bass, and drum tabs
                                    from Ultimate-Guitar.com database.

                                    Type "ultimate guitar tabs" in Apple
                                    App Store's or Android Market's
                                    search to find the application.
#----------------------------------PLEASE NOTE---------------------------------#
#This file is the author's own work and represents their interpretation of the #
#song. You may only use this file for private study, scholarship, or research. #
#------------------------------------------------------------------------------##

                                     ALCOHOL


Gtr I (E A D G B E) - 'Track 1'
Gtr II (E A D G B E) - 'Track 2'

  Q=130
 3/4
  Gtr I
  H.        Q  Q  Q    H.        Q  Q.   S S   H.        Q  Q  Q
|---------|----------|---------|-------------|---------|-----------|
|-1-------|-3--1--0--|---------|----1--------|-1-------|-3--1------|
|-0-------|-6--------|---------|-2--2------2-|-0-------|-6-----0---|
|-2-------|-5--------|-3-------|-3--3--------|-2-------|-5---------|
|---------|-7--------|-3-------|-3-----------|---------|-7---------|
|---------|----------|-5-------|-------------|---------|-----------|


  Q  Q  E S S   Q  H        E E +E  E +Q
|-------------|-----------|----------------|
|-------------|----1------|----------------|
|-----------2-|-2--2------|---0-(0)-0-(0)--|
|-3--3--------|-3---------|-2--------------|
|-3--3--------|-----------|-3--------------|
|-5--5--------|-----------|-5--------------|
|
| Gtr II
| W             W           E E +E  E  Q
|-------------|-----------|----------------|
|-------------|-----------|----------------|
|-------------|-----------|---0-(0)-0------|
|-------------|-----------|-2--------------|
|-------------|-----------|----------------|
|-------------|-----------|----------------|


  E. S Q  Q    E. S +H        Q  Q  E. S
|------------|--------------|------------|
|------------|--------------|------------|
|-0----0-----|-0--2-(2)-----|-2--0-------|
|-2--2-2--2--|-3------------|-3--3-------|
|-3----3-----|-3------------|-3--3--3--5-|
|------------|--------------|------------|
|
| E. S Q  Q    E. S  Q   Q    Q  Q  E. S
|------------|--------------|------------|
|------------|--------------|------------|
|-0----0-----|-0--2---------|------------|
|----2----2--|--------------|------------|
|------------|--------------|-------3--5-|
|------------|--------------|------------|


  Q  Q  E. S    Q   Q  Q    H.
|------------|------------|---------|
|------------|------------|---------|
|----0-----2-|------0-----|---------|
|-2-----2----|--2------0--|---------|
|-3----------|--3---------|-3-------|
|-3----------|------------|-5-------|
|
| Q  Q  E. S   +Q   Q  Q    H.
|------------|------------|---------|
|------------|------------|---------|
|------------|------------|---------|
|----5-----7-|-(7)--5-----|---------|
|-7-----7----|---------5--|-3-------|
|------------|------------|---------|


  E. S Q  E. S   Q  Q  E. S    Q   Q  E S  S
|--------------|------------|------------------|
|--------------|------------|------------------|
|---------5----|-5--5--5----|------------------|
|-3--5-7-----7-|-5--5-----7-|--9---------------|
|-3----8-------|-7--7-------|-10--10------10---|
|------8-------|------------|-10--10-----------|
|
| Q    Q  E. S   Q  Q  E. S    Q   Q  E S  S
|--------------|------------|------------------|
|---------1----|-1--1--1----|------------------|
|------------2-|----------2-|--4---------------|
|--------------|------------|--------------5---|
|--------------|------------|------------------|
|--------------|------------|------------------|


  Q  Q  E. S   H    Q     H.        Q  Q  Q      H    Q      H     E S S
|------------|---------|----------|------------|-----------|--------------|
|------------|---------|----------|------------|-----------|--------------|
|------------|---------|----------|----2--3----|-4---------|-0------------|
|-7--5--5--5-|-2-------|--0-------|-5----------|-0----7----|-0------------|
|-7--7-------|-3----3--|--2-------|-2--3--4----|------3----|-2---------3--|
|-8--8-------|-3----3--|--3-------|------------|-----------|--------------|
|
| Q  Q  E. S   H    Q     H.        W            W           Q  Q  E S S
|------------|---------|----------|------------|-----------|--------------|
|------------|---------|----------|------------|-----------|--------------|
|------------|---------|----------|------------|-----------|--------------|
|-7--5--5--5-|---------|----------|------------|-----------|--------------|
|------------|-7-------|----------|------------|-----------|--------------|
|------------|------8--|-10-------|------------|-----------|-----------8--|


  E E +E  E +E  S S   Q  E. S  Q     E. S +H
|-------------------|--------------|--------------|
|-------------------|--------------|--------------|
|---0-(0)-0-(0)-----|-0------------|-0--2-(2)-----|
|-2-2-(2)-2-(2)---2-|-2------------|-3------------|
|---3-(3)-3-(3)-----|-3--3--3--3---|-3------------|
|-------------------|--------------|--------------|
|
| E E +E  E +E  S S   Q  E. S +Q     E. S  Q   Q
|-------------------|--------------|--------------|
|-------------------|--------------|--------------|
|-------------------|--------------|--------------|
|---5-(5)-5-(5)-----|-5------------|-5--7---------|
|-7---------------7-|----3--3-(3)--|--------------|
|-------------------|--------------|--------------|


  E. S Q.    S S   E E +E  E +E  S S
|----------------|-------------------|
|----------------|-------------------|
|----2-----------|---0-(0)-0-(0)---2-|
|-5----3---------|-2-2-(2)-2-(2)-----|
|-3------------3-|---3-(3)-3-(3)-----|
|----------------|-------------------|
|
| Q    Q   E S S   E E +E  E +E  S S
|----------------|-------------------|
|----------------|-------------------|
|----------------|-------------------|
|----------------|---5-(5)-5-(5)---7-|
|----------------|-7-----------------|
|--------------8-|-------------------|


  Q  E. S +Q     H.          S S S S Q  E. S   Q  E. S +Q     S S  E +Q   Q
|--------------|-----------|-----------------|--------------|----------------|
|--------------|-----------|-----------------|-------3-(3)--|----------------|
|-0------------|-----------|------------5----|-5--5---------|-4-2--0-(0)-----|
|-2--2--0-(0)--|-----------|-3-5---6-7-----7-|-5--5---------|-0-----------0--|
|-3------------|-3---------|-----------------|-7--7---------|----------------|
|--------------|-5---------|-----------------|--------------|----------------|
|
| Q  E. S +Q     Q   Q  Q    Q       Q  E. S   Q  E. S +Q     S E.   +Q   Q
|--------------|-----------|-----------------|--------------|----------------|
|--------------|-----------|------------1----|-1--1--3-(3)--|----------------|
|--------------|-----------|---------------2-|--------------|-4-2----(2)-----|
|-5------------|-----------|-----------------|--------------|----------------|
|----7--5-(5)--|-3---------|-----------------|--------------|----------------|
|--------------|-----------|-----------------|--------------|----------------|


  E E +E  E   E. S   E E +Q   Q    Q  Q  Q
|------------------|-------------|----------|
|------------------|-------------|----------|
|-2-2-(2)--------0-|-2-----------|----------|
|---2-(2)-0---2----|---2-(2)-----|-0--5--5--|
|---3-(3)----------|-3--------3--|-2--2--2--|
|------------------|-------------|----------|
|
| Q    E  S S E. S   E E +Q   Q    Q  Q  Q
|------------------|-------------|----------|
|------------------|-------------|----------|
|----------------0-|-0-----------|----------|
|-----------0-2----|---2-(2)-----|----------|
|------------------|----------3--|-5--------|
|------------------|-------------|----------|


  Q  Q  Q      H.          Q  Q  Q
|------------|-----------|-----------|
|------------|-----------|-------1---|
|----2--3----|-4---------|-0--2------|
|-5----------|-0---------|-3---------|
|-2--3--4----|-----------|-3---------|
|------------|-----------|-----------|
|
| W            W           Q  Q  Q
|------------|-----------|-----------|
|------------|-----------|-----------|
|------------|-----------|-------5---|
|------------|-----------|-5--7------|
|------------|-----------|-----------|
|------------|-----------|-----------|


  H    Q    S S E +Q   E. S   E E +Q   S S S S    Q   H      Q  H
|-0----0--|-0---------------|------------------|-----------|-0--0----|
|-1----1--|---3-1-(1)--1----|-1--------1-------|--1---1----|-1--1----|
|-0----0--|-----0-(0)-----2-|----------2-0-----|--2---2----|-0--0----|
|---------|-----2-(2)-------|---3-(3)--------3-|-----------|---------|
|---------|-----------------|---3-(3)----------|-----------|---------|
|---------|-----------------|---5-(5)----------|-----------|---------|
|
| H    Q    S S E +Q   E. S   E E +H             +H.         Q  H
|---------|-----------------|------------------|-----------|---------|
|-5----5--|-5-3-1-(1)--1----|-1----------------|-----------|-5--5----|
|---------|---------------2-|------------------|-----------|---------|
|---------|-----------------|---3-(3)----------|-(3)-------|---------|
|---------|-----------------|------------------|-----------|---------|
|---------|-----------------|------------------|-----------|---------|


  E. S H      S S E +Q   S S S S   Q  Q  E. S    Q  Q  Q    S S  E +Q   E S S
|-----------|--------------------|------------|-----------|-------------------|
|-3--1-3----|--------------------|------------|--------5--|-------------------|
|-0----0----|-2-0----------------|----5--5----|-----7--0--|-7-5--4-(4)--------|
|-2----2----|-----3-(3)--3-5---6-|-7--7--7--7-|-10--------|-5----5-(5)------5-|
|-----------|-----3-(3)----------|----8--8----|--7--8-----|------5-(5)--------|
|-----------|-----5-(5)----------|------------|-----------|-------------------|
|
| E. S H      S S E  Q   Q         Q  Q  E. S    Q  Q  Q    S E.   +Q   Q
|-----------|--------------------|------------|-----------|-------------------|
|-3--1-3----|--------------------|-------1----|--1--3--5--|-3-1----(1)--------|
|-----------|-2-0----------------|----------2-|-----------|-------------------|
|-----------|--------------------|------------|-----------|-------------------|
|-----------|--------------------|------------|-----------|-------------------|
|-----------|--------------------|------------|-----------|-------------------|


  Q  E.  S  +Q      E E +Q   Q    Q.    E   E. S
|----------------|--------------|----------------|
|----------------|--------------|----------------|
|----------------|--------------|----------------|
|-7--9--10-(10)--|--------------|-3---------3--3-|
|----------------|-10-3-(3)-----|-5-----5--------|
|-8-----12-(12)--|----3-(3)-----|-5--------------|
|
| Q  E.  S  +Q      E E +Q   Q    Q   E S S E. S
|----------------|--------------|----------------|
|----------------|--------------|----------------|
|-2--4---5--(5)--|--------------|----------------|
|----------------|--5-----------|-----------3--3-|
|----------------|----3-(3)-----|---------5------|
|----------------|--------------|----------------|


  Q  E. S +Q     S S E +Q   E. S
|--------------|------------------|
|--------------|------------------|
|-2--0---------|------------------|
|-3-----3-(3)--|-5-3-----------3--|
|-5-----5-(5)--|-2---5-(5)--5-----|
|-------5-(5)--|------------------|
|
| Q  E. S +Q     S S E +Q   Q
|--------------|------------------|
|--------------|------------------|
|-2--0---------|------------------|
|-------3-(3)--|-5-3--------------|
|--------------|-----5-(5)--------|
|--------------|------------------|


  Q  Q  E.   S   E E +Q   Q    E E +E  E +E  S S
|--------------|-------------|-------------------|
|-------1----1-|-3-5-(5)--5--|---------6-(6)---6-|
|-0--2--0------|---5-(5)--5--|-7-5-(5)-5-(5)---5-|
|-3--3--3------|---5-(5)--5--|-5-------7-(7)---7-|
|-3--3---------|-------------|-------------------|
|--------------|-------------|-------------------|
|
| Q  Q  E  S S   E E +Q   Q    E E +E  E +E  S S
|--------------|-------------|---------1-(1)---1-|
|--------------|-3-5-(5)--5--|-3-1-(1)-----------|
|------------5-|-------------|-------------------|
|--------------|-------------|-------------------|
|--------------|-------------|-------------------|
|--------------|-------------|-------------------|


  +Q   E. S +Q     Q  Q  E.   S
|----------------|--------------|
|-(6)--3--1-(1)--|----1--1------|
|-(5)------------|-2----------2-|
|-(7)------------|-3------------|
|----------------|-3------------|
|----------------|--------------|
|
| +Q   E. S  Q     Q  Q  E  S S
|-(1)------------|--------------|
|------3--1------|--------------|
|----------------|------------2-|
|----------------|--------------|
|----------------|--------------|
|----------------|--------------|


  E E +E  E +Q     Q  Q  E. S   +E  E +Q   E. S
|----------------|------------|-----------------|
|---------1-(1)--|-1----------|-----------------|
|-5-2-(2)-0-(0)--|----0-------|-----------------|
|-2-------2-(2)--|-2-----2--3-|-(3)--------3--5-|
|----------------|----------3-|-(3)-3-(3)-------|
|----------------|----------5-|-(5)-------------|
|
| E E +E  E +Q     Q  Q  E. S   +E  E  Q   Q
|----------------|------------|-----------------|
|-1-------1-(1)--|-1----------|-----------------|
|---2-(2)--------|----0-------|-----------------|
|----------------|-------2--3-|-(3)-------------|
|----------------|------------|-----------------|
|----------------|------------|-----------------|


   S E S  E S S Q    Q  Q   E.  S
|------------------|---------------|
|------------------|---------------|
|------5-----------|------------0--|
|--7------7-----6--|-7--9--10---2--|
|-10-----10---8----|-8----------3--|
|------------------|-8-------------|
|
|  Q      E S S Q    Q  Q   E.  S
|------------------|---------------|
|------------------|---------------|
|------------------|---------------|
|-------------3-5--|-7--9--10------|
|------------------|-----------10--|
|------------------|---------------|


   +E  S  S Q.    S S   E  E  +Q    Q     Q   E. S Q    H.        H    E. S
|---------------------|----------------|--------------|---------|-0----------|
|---------------------|----------------|--------------|---------|-1-------1--|
|--(0)----------------|----------------|--------------|---------|-2----2--0--|
|--(2)----0---------2-|-3--5--(5)---7--|--5-----------|---------|-3-------2--|
|--(3)------3---------|-3-----------8--|--7---5--3-0--|---------|------------|
|-----------3---------|-------------8--|--8-----------|-3-------|------------|
|
|  +E  S  S Q   E S S   E  E  +Q    Q     Q   E. S Q    H.        H    E. S
|---------------------|----------------|--------------|---------|------------|
|---------------------|----------------|--------------|---------|-5----------|
|---------------------|----------------|--------------|---------|---------5--|
|---------------------|----------------|--------------|---------|------7-----|
|-(10)--------------7-|-8-10-(10)--12--|-10-----------|---------|------------|
|--------10-8---------|----------------|-----10--8-5--|-3-------|------------|


  +Q   H      E S S E E Q    Q  H        H    E. S   +Q   H
|-----------|--------------|-----------|-0---------|-----------|
|-(1)--1----|--------------|-----------|-1---------|------1----|
|-(0)--0----|-----0--------|-2--2------|-2----2--5-|-(5)--0----|
|-(2)--2----|-2-----2------|-3--3------|-3-------2-|-(2)--2----|
|-----------|-5-----5---3--|-3--3------|-----------|-----------|
|-----------|--------------|-----------|-----------|-----------|
|
| +H.         W              W           H    E. S   +H.
|-----------|--------------|-----------|-----------|-----------|
|-----------|--------------|-----------|-5---------|-----------|
|-(5)-------|--------------|-----------|---------5-|-(5)-------|
|-----------|--------------|-----------|------7----|-----------|
|-----------|--------------|-----------|-----------|-----------|
|-----------|--------------|-----------|-----------|-----------|


  S E S E E Q    Q  H      Q.    E   Q
|--------------|---------|--------------|
|--------------|---------|--------------|
|-----0--------|-2--2----|-2------------|
|-2-----4------|-3--3----|-3------------|
|-6-----7---3--|-3--3----|-3-----3---3--|
|--------------|---------|--------------|
|
| W              W         Q   E S S Q
|--------------|---------|--------------|
|--------------|---------|--------------|
|--------------|---------|--------------|
|--------------|---------|--------------|
|--------------|---------|---------3-3--|
|--------------|---------|--------------|


  E E +E  E +Q     E. S Q  Q    E. S +H
|----------------|------------|---------------|
|----------------|------------|---------------|
|---0-(0)-0-(0)--|-0----0-----|-0--2-(2)------|
|-2--------------|-2--2-2--2--|-3-------------|
|-3--------------|-3----3-----|-3-------------|
|-5--------------|------------|---------------|
|
| E E +E  E  Q     E. S Q  Q    E. S  Q   Q
|----------------|------------|---------------|
|----------------|------------|---------------|
|---0-(0)-0------|-0----0-----|-0--2----------|
|-2--------------|----2----2--|---------------|
|----------------|------------|---------------|
|----------------|------------|---------------|


  Q  Q  E. S   Q  Q  E. S    Q   Q  Q    H.        E. S Q  E. S   Q  Q  E. S
|------------|------------|------------|---------|--------------|------------|
|------------|------------|------------|---------|--------------|------------|
|-2--0-------|----0-----2-|------0-----|---------|---------5----|-5--5--5----|
|-3--3-------|-2-----2----|--2------0--|---------|-3--5-7-----7-|-5--5-----7-|
|-3--3--3--5-|-3----------|--3---------|-3-------|-3----8-------|-7--7-------|
|------------|-3----------|------------|-5-------|------8-------|------------|
|
| Q  Q  E. S   Q  Q  E. S   +Q   Q  Q    H.        Q    Q  E. S   Q  Q  E. S
|------------|------------|------------|---------|--------------|------------|
|------------|------------|------------|---------|---------1----|-1--1--1----|
|------------|------------|------------|---------|------------2-|----------2-|
|------------|----5-----7-|-(7)--5-----|---------|--------------|------------|
|-------3--5-|-7-----7----|---------5--|-3-------|--------------|------------|
|------------|------------|------------|---------|--------------|------------|


   Q   Q  E  S  S   Q    Q   E. S   H     Q    H.        Q  Q  Q    H    Q
|-----------------|---------------|----------|---------|----------|-----------|
|-----------------|---------------|----------|---------|----------|-----------|
|-----------------|---------------|----------|---------|----2--3--|-4---------|
|--9--------------|-7----5---5--5-|-2--------|-0-------|-5--------|-0----7----|
|-10--10-------10-|-7----7--------|-3-----3--|-2-------|-2--3--4--|------3----|
|-10--10----------|-8----8--------|-3-----3--|-3-------|----------|-----------|
|
|  Q   Q  E.    S   E E +Q   E. S   Q  Q  Q    H.        W          W
|-----------------|---------------|----------|---------|----------|-----------|
|-----------------|---------------|----------|---------|----------|-----------|
|--4------------0-|-2-----------0-|-0--------|---------|----------|-----------|
|---------2-------|---2-(2)--2----|-------3--|---------|----------|-----------|
|-----------------|---------------|----3-----|-5-------|----------|-----------|
|-----------------|---------------|----------|---------|----------|-----------|


  H     E S S   E E +E  E +E  S S   Q  E. S  Q
|-------------|-------------------|--------------|
|-------------|-------------------|--------------|
|-0-----------|---0-(0)-0-(0)-----|-0------------|
|-0-----------|-2-2-(2)-2-(2)---2-|-2------------|
|-2---------3-|---3-(3)-3-(3)-----|-3--3--3--3---|
|-------------|-------------------|--------------|
|
| Q  Q  E S S   E E +E  E +E  S S   Q  E. S +Q
|-------------|-------------------|--------------|
|-------------|-------------------|--------------|
|-------------|---0-(0)-0-(0)-----|-0------------|
|-------------|-2---------------2-|--------------|
|-----------3-|-------------------|----3--3-(3)--|
|-------------|-------------------|--------------|


  E. S +H        E. S Q.       S S
|--------------|--------------------|
|--------------|--------------------|
|-0--2-(2)-----|----2---------------|
|-3------------|-5----3-------------|
|-3------------|-3---------------3--|
|--------------|--------------------|
|
| E. S  Q   Q    Q    E  S S Q
|--------------|--------------------|
|--------------|--------------------|
|--------------|--------------------|
|-5--7---------|--------------------|
|--------------|--------------------|
|--------------|-----------8-8------|


  E E +E  E +E  S S   Q  E. S +Q
|-------------------|--------------|
|-------------------|--------------|
|---0-(0)-0-(0)---2-|-0------------|
|-2-2-(2)-2-(2)-----|-2--2--0-(0)--|
|---3-(3)-3-(3)-----|-3------------|
|-------------------|--------------|
|
| E E +E  E +E  S S   Q  E. S +Q
|-------------------|--------------|
|-------------------|--------------|
|-------------------|--------------|
|---5-(5)-5-(5)---7-|-5------------|
|-7-----------------|----7--5-(5)--|
|-------------------|--------------|


  H.          S S S S Q  E. S   Q  E. S +Q
|-----------|-----------------|--------------|
|-----------|-----------------|-------3-(3)--|
|-----------|------------5----|-5--5---------|
|-----------|-3-5---6-7-----7-|-5--5---------|
|-3---------|-----------------|-7--7---------|
|-5---------|-----------------|--------------|
|
| Q   Q  Q    Q       Q  E. S   Q  E. S +Q
|-----------|-----------------|--------------|
|-----------|------------1----|-1--1--3-(3)--|
|-----------|---------------2-|--------------|
|-----------|-----------------|--------------|
|-3---------|-----------------|--------------|
|-----------|-----------------|--------------|


  S S  E +Q   Q    E E +E  E E. S   E E +Q   Q    Q  Q  Q    Q  Q  Q    H.
|----------------|----------------|-------------|----------|----------|-------|
|----------------|----------------|-------------|----------|----------|-------|
|-4-2--0-(0)-----|-2-2-(2)------0-|-2-----------|----------|----2--3--|-4-----|
|-0-----------0--|---2-(2)-0-2----|---2-(2)-----|-0--5--5--|-5--------|-0-----|
|----------------|---3-(3)--------|-3--------3--|-2--2--2--|-2--3--4--|-------|
|----------------|----------------|-------------|----------|----------|-------|
|
| S E.   +Q   Q    E E +Q    Q      E E +Q   Q    Q  Q  Q    Q  Q  Q    H.
|----------------|----------------|-------------|----------|----------|-------|
|----------------|----------------|-------------|----------|----------|-------|
|-4-2----(2)-----|-2-2-(2)--------|-0-----------|----------|----------|-------|
|----------------|-----------2----|---2-(2)-----|-5--5--5--|-5--7--8--|-9-----|
|----------------|----------------|----------3--|----------|----------|-------|
|----------------|----------------|-------------|----------|----------|-------|


   Q   Q   Q    H    Q    S S E +Q   E. S   E E +Q   S S S S    Q   H
|-------------|-0----0--|-0---------------|------------------|-----------|
|----------1--|-1----1--|---3-1-(1)--1----|-1--------1-------|--1---1----|
|--0---2------|-0----0--|-----0-(0)-----2-|----------2-0-----|--2---2----|
|--3----------|---------|-----2-(2)-------|---3-(3)--------3-|-----------|
|--3----------|---------|-----------------|---3-(3)----------|-----------|
|-------------|---------|-----------------|---5-(5)----------|-----------|
|
|  Q   Q   Q    H    Q    S S E +Q   E. S   E E +H             +H.
|-------------|---------|-----------------|------------------|-----------|
|-------------|---------|-----------------|------------------|-----------|
|-------------|-9----9--|-9-7-5-(5)--5----|-5----------------|-----------|
|---------10--|---------|---------------7-|---3-(3)----------|-(3)-------|
|-10--12------|---------|-----------------|------------------|-----------|
|-------------|---------|-----------------|------------------|-----------|


  Q  H      E. S H      S S E +Q   S S S S   Q  Q  E. S    Q  Q  Q
|-0--0----|-----------|--------------------|------------|-----------|
|-1--1----|-3--1-3----|--------------------|------------|--------5--|
|-0--0----|-0----0----|-2-0----------------|----5--5----|-----7--0--|
|---------|-2----2----|-----3-(3)--3-5---6-|-7--7--7--7-|-10--------|
|---------|-----------|-----3-(3)----------|----8--8----|--7--8-----|
|---------|-----------|-----5-(5)----------|------------|-----------|
|
| Q  H      E. S H      S S E  Q   Q         Q  Q  E. S    Q  Q  Q
|---------|-----------|--------------------|------------|-----------|
|-5--5----|-3--1-3----|--------------------|-------1----|--1--3--5--|
|---------|-----------|-2-0----------------|----------2-|-----------|
|---------|-----------|--------------------|------------|-----------|
|---------|-----------|--------------------|------------|-----------|
|---------|-----------|--------------------|------------|-----------|


  S S  E +Q   E  S S   Q  E.  S  +Q
|--------------------|----------------|
|--------------------|----------------|
|-7-5--4-(4)---------|----------------|
|-5----5-(5)-------5-|-7--9--10-(10)--|
|------5-(5)---------|----------------|
|--------------------|-8-----12-(12)--|
|
| S E.   +Q   E.   S   Q  E.  S  +Q
|--------------------|----------------|
|-3-1----(1)--1----0-|----------------|
|--------------------|-2--4---5--(5)--|
|--------------------|----------------|
|--------------------|----------------|
|--------------------|----------------|


   E E +Q   Q    Q.    E   E. S   Q  E. S +Q
|--------------|----------------|--------------|
|--------------|----------------|--------------|
|--------------|----------------|-2--0---------|
|--------------|-3---------3--3-|-3-----3-(3)--|
|-10-3-(3)-----|-5-----5--------|-5-----5-(5)--|
|----3-(3)-----|-5--------------|-------5-(5)--|
|
|  E E +Q   Q    Q   E S S E. S   Q  E. S +Q
|--------------|----------------|--------------|
|--------------|----------------|--------------|
|--------------|----------------|-2--0---------|
|--5-----------|-----------3--3-|-------3-(3)--|
|----3-(3)-----|---------5------|--------------|
|--------------|----------------|--------------|


  S S E +Q   E. S   Q  Q  E. S   E E +Q   Q
|-----------------|------------|-------------|
|-----------------|-------1--1-|-3-5-(5)--5--|
|-----------------|-0--2--0----|---5-(5)--5--|
|-5-3-----------3-|-3--3--3----|---5-(5)--5--|
|-2---5-(5)--5----|-3--3-------|-------------|
|-----------------|------------|-------------|
|
| S S E +Q   Q      Q  Q  Q      E E +Q   Q
|-----------------|------------|-------------|
|-----------------|------------|-3-5-(5)--5--|
|-----------------|-------5----|-------------|
|-5-3-------------|----7-------|-------------|
|-----5-(5)-------|------------|-------------|
|-----------------|------------|-------------|


  E E +E  E +E  S S   +Q   E. S +Q
|-------------------|-----------------|
|---------6-(6)---6-|-(6)--3--1-(1)---|
|-7-5-(5)-5-(5)---5-|-(5)-------------|
|-5-------7-(7)---7-|-(7)-------------|
|-------------------|-----------------|
|-------------------|-----------------|
|
| E E +E  E +E  S S   +Q   E. S  Q
|---------1-(1)---1-|-(1)-------------|
|-3-1-(1)-----------|------3--1-------|
|-------------------|-----------------|
|-------------------|-----------------|
|-------------------|-----------------|
|-------------------|-----------------|


  Q  Q  E. S   E E +E  E +Q     Q  Q  E. S
|------------|----------------|------------|
|----1--1----|---------1-(1)--|-1----------|
|-2--------2-|-5-2-(2)-0-(0)--|----0-------|
|-3----------|-2-------2-(2)--|-2-----2--3-|
|-3----------|----------------|----------3-|
|------------|----------------|----------5-|
|
| Q  Q  E. S   E E +E  E +Q     Q  Q  E. S
|------------|----------------|------------|
|-------1----|-1-------1-(1)--|-1----------|
|----------2-|---2-(2)--------|----0-------|
|------------|----------------|-------2--3-|
|------------|----------------|------------|
|------------|----------------|------------|


  +E  E +Q   E. S    S E S  E S S Q
|-----------------|-------------------|
|-----------------|-------------------|
|-----------------|------5------------|
|-(3)--------3--5-|--7------7-----6---|
|-(3)-3-(3)-------|-10-----10---8-----|
|-(5)-------------|-------------------|
|
| +E  E  Q   Q       Q      E S S Q
|-----------------|-------------------|
|-----------------|-------------------|
|-----------------|-------------------|
|-(3)-------------|-------------3-5---|
|-----------------|-------------------|
|-----------------|-------------------|


  Q  Q   E.  S    +E  S  S Q.    S S   E  E  +Q    Q     Q   E. S Q    H.
|--------------|---------------------|----------------|--------------|-------|
|--------------|---------------------|----------------|--------------|-------|
|------------0-|--(0)----------------|----------------|--------------|-------|
|-7--9--10---2-|--(2)----0---------2-|-3--5--(5)---7--|--5-----------|-------|
|-8----------3-|--(3)------3---------|-3-----------8--|--7---5--3-0--|-------|
|-8------------|-----------3---------|-------------8--|--8-----------|-3-----|
|
| Q  Q   E.  S    +E  S  S Q   E S S   E  E  +Q    Q     Q   E. S Q    H.
|--------------|---------------------|----------------|--------------|-------|
|--------------|---------------------|----------------|--------------|-------|
|--------------|---------------------|----------------|--------------|-------|
|-7--9--10-----|---------------------|----------------|--------------|-------|
|-----------10-|-(10)--------------7-|-8-10-(10)--12--|-10-----------|-------|
|--------------|--------10-8---------|----------------|-----10--8-5--|-3-----|


  H    E. S   +Q   H      E S S E E Q    Q  Q  Q      Q  Q  Q    H    Q
|-0---------|-----------|--------------|------------|----------|-0----0--|
|-1-------1-|-(1)--1----|--------------|------------|-------1--|-1----1--|
|-2----2--0-|-(0)--0----|-----0--------|------------|----2-----|-0----0--|
|-3-------2-|-(2)--2----|-2-----2------|-5--5--5----|-3--------|---------|
|-----------|-----------|-5-----5---3--|-2--2--2----|-5--------|---------|
|-----------|-----------|--------------|------------|----------|---------|
|
| H    E. S   +H.         W              W            Q  Q  Q    H    Q
|-----------|-----------|--------------|------------|----------|---------|
|-5---------|-----------|--------------|------------|----------|-5----5--|
|---------5-|-(5)-------|--------------|------------|-------5--|---------|
|------7----|-----------|--------------|------------|-5--7-----|---------|
|-----------|-----------|--------------|------------|----------|---------|
|-----------|-----------|--------------|------------|----------|---------|


  S S E +Q   E. S   E E +Q   S S S S    Q   H      Q  H      E. S H
|-0---------------|------------------|-----------|-0--0----|-----------|
|---3-1-(1)--1----|-1--------1-------|--1---1----|---------|-3--1-3----|
|-----0-(0)-----2-|----------2-0-----|--2---2----|-0--0----|-0----0----|
|-----2-(2)-------|---3-(3)--------3-|--3---3----|---------|-2----2----|
|-----------------|---3-(3)----------|-----------|---------|-----------|
|-----------------|---5-(5)----------|-----------|---------|-----------|
|
| S S E +Q   E. S   E E +H             +H.         Q  H      E. S H
|-----------------|------------------|-----------|---------|-----------|
|-5-3-1-(1)--1----|-1----------------|-----------|-5--5----|-3--1-3----|
|---------------2-|------------------|-----------|---------|-----------|
|-----------------|---3-(3)----------|-(3)-------|---------|-----------|
|-----------------|------------------|-----------|---------|-----------|
|-----------------|------------------|-----------|---------|-----------|


  S S E +Q   S S S S   Q  Q  E. S
|--------------------|------------|
|--------------------|------------|
|-2-0----------------|----5--5----|
|-----3-(3)--3-5---6-|-7-----7--7-|
|-----3-(3)----------|-8-----8----|
|-----5-(5)----------|-8----------|
|
| S S E  Q   Q         Q  Q  E. S
|--------------------|------------|
|--------------------|-------1----|
|-2-0----------------|----------2-|
|--------------------|------------|
|--------------------|------------|
|--------------------|------------|


   Q  Q  Q    S S E +Q   E S S   Q  E. S +Q
|-----------|------------------|--------------|
|--------5--|-3-1-0-(0)--------|--------------|
|-----7--0--|-----0-(0)------0-|-2--4--5-(5)--|
|-10--------|-----0-(0)--------|-------2-(2)--|
|--7--8-----|------------------|-3------------|
|-----------|------------------|--------------|
|
|  Q  Q  Q    S S E +Q   Q       Q  E. S +Q
|-----------|------------------|--------------|
|--1--3--5--|-3-1-0-(0)--------|--------------|
|-----------|------------------|-2--4--5-(5)--|
|-----------|------------------|--------------|
|-----------|------------------|--------------|
|-----------|------------------|--------------|


  E E +Q   Q    Q  Q     Q       W                   S S S S S S S S S S S S
|-------------|----------------|-------------------|--------------------------|
|-------------|----------------|-------------------|--------------------------|
|-0--------0--|----------------|-------------------|--------------------------|
|-2--------2--|-3--------------|-------------------|-5-5---5-5-5---5-5-5---5--|
|---3-(3)--3--|-5--------------|-------------------|--------------------------|
|-------------|-5--------------|-------------------|--------------------------|
|
| E E +Q   Q    Q  E S S S E S   S S E S E S S S E   S S E   Q       Q
|-------------|----------------|-------------------|--------------------------|
|-------------|--------1-1---1-|-1-----1---1-1-----|-1------------------------|
|-------------|----------------|-------------------|--------------------------|
|-5-----------|----------------|-------------------|--------------------------|
|---3-(3)-----|----------------|-------------------|--------------------------|
|-------------|----------------|-------------------|--------------------------|


  S S S S Q  E S S   E E +Q   Q    E E +E  E +E  S S
|------------------|-------------|-------------------|
|------------------|-3-5-(5)--5--|---------6-(6)---6-|
|----------------5-|---5-(5)--5--|-7-5-(5)-5-(5)---5-|
|-5-5---5-5--------|---5-(5)--5--|-5-------7-(7)---7-|
|------------------|-------------|-------------------|
|------------------|-------------|-------------------|
|
| Q       Q  E S S   E E +Q   Q    E E +E  E +E  S S
|------------------|-------------|---------1-(1)---1-|
|----------------1-|-3-5-(5)--5--|-3-1-(1)-----------|
|------------------|-------------|-------------------|
|------------------|-------------|-------------------|
|------------------|-------------|-------------------|
|------------------|-------------|-------------------|


  +Q   E. S +Q        Q  Q  E.   S
|-------------------|---------------|
|-(6)--3--1-(1)-----|----1--1-------|
|-(5)---------------|-2----------2--|
|-(7)---------------|-3-------------|
|-------------------|---------------|
|-------------------|---------------|
|
| +Q   Q    +S  S E   Q  Q  E  S S
|-(1)---------------|---------------|
|------3----(3)-----|---------------|
|-------------------|------------2--|
|-------------------|---------------|
|-------------------|---------------|
|-------------------|---------------|


  E E +E  E +Q     Q  Q  E. S   +E  E   +Q   E. S
|----------------|------------|-------------------|
|----------------|------------|-------------------|
|-5-2-(2)-5-(5)--|-5--0-------|-------------------|
|-2-------2-(2)--|-2-----2--3-|-(3)----------3--5-|
|----------------|----------3-|-(3)-3---(3)-------|
|----------------|----------5-|-(5)-5---(5)-------|
|
| E E +E  E +Q     Q  Q  E. S   +E  S S  Q   Q
|----------------|------------|-------------------|
|-1-------1-(1)--|-1----------|-------------------|
|---2-(2)--------|----0-------|-------------------|
|----------------|-------2--3-|-(3)---------------|
|----------------|------------|-------3-----------|
|----------------|------------|-------------------|


  S E S E S S Q    Q  Q   E.  S
|----------------|--------------|
|-----1----------|----0---1-----|
|-3-----2-----1--|-2--0---------|
|-5-----5---3----|-3----------5-|
|----------------|-3----------3-|
|----------------|--------------|
|
| Q     E S S Q    Q  Q   E.  S
|----------------|--------------|
|----------------|--------------|
|----------------|--------------|
|-----------3-5--|-7--9--10-----|
|----------------|-----------10-|
|----------------|--------------|


   +E  S  S Q.    S S   E  E  +Q    Q     Q   E. S Q    H.        H    E. S
|---------------------|----------------|--------------|---------|-0----------|
|---------------------|----------------|--------------|---------|-1----3-----|
|---------------------|----------------|--------------|---------|-2-------5--|
|--(5)--------------2-|-3--5--(5)---7--|--5-----------|---------|-3-------2--|
|--(3)----5-3---------|-3-----------8--|--7---5--3-0--|---------|------------|
|-----------3---------|-------------8--|--8-----------|-3-------|------------|
|
|  +E  S  S Q   E S S   E  E  +Q    Q     Q   E. S Q    H.        H    E. S
|---------------------|----------------|--------------|---------|------------|
|---------------------|----------------|--------------|---------|-5----3--1--|
|---------------------|----------------|--------------|---------|------------|
|---------------------|----------------|--------------|---------|------------|
|-(10)--------------7-|-8-10-(10)--12--|-10-----------|---------|------------|
|--------10-8---------|----------------|-----10--8-5--|-3-------|------------|


  +Q   H      S E S  E E Q    Q  H        H    E.  S   Q  H
|-----------|---------------|-----------|------------|---------|
|------1----|---------------|-----------|-5----------|---------|
|-(5)--0----|---------------|-----------|-5----------|----5----|
|-(2)--2----|-3---5---------|-7--7------|-7----7--10-|----5----|
|-----------|-6------7------|-8--8------|-8--------7-|----7----|
|-----------|-------10---8--|-8--8------|------------|---------|
|
| +H.         W               W           H    E.  S   W
|-----------|---------------|-----------|-0----------|---------|
|-(1)-------|---------------|-----------|----------1-|---------|
|-----------|---------------|-----------|------2-----|---------|
|-----------|---------------|-----------|------------|---------|
|-----------|---------------|-----------|------------|---------|
|-----------|---------------|-----------|------------|---------|


  S E S  E E Q    Q  H      H    E. S   +H     Q     H.
|---------------|---------|-----------|-----------|--------*|
|---------------|---------|-5---------|-----------|--------*|
|---------------|---------|-5-------5-|-(5)-------|--5-----*|
|-3---5---------|-7--7----|-7----7--5-|-(5)----7--|--5-----*|
|-6------7------|-8--8----|-8-------7-|-(7)----8--|--7-----*|
|-------10---8--|-8--8----|-----------|-----------|--------*|
|
| W               W         H    E. S   +H.         +H.
|---------------|---------|-0---------|-----------|--------*|
|---------------|---------|---------1-|-(1)-------|-(1)----*|
|---------------|---------|------2----|-----------|--------*|
|---------------|---------|-----------|-----------|--------*|
|---------------|---------|-----------|-----------|--------*|
|---------------|---------|-----------|-----------|--------*|


Duration Legend
---------------
W - whole; H - half; Q - quarter; E - 8th; S - 16th; T - 32nd; X - 64th; a - acciaccatura
+ - note tied to previous; . - note dotted; .. - note double dotted
Uncapitalized letters represent notes that are staccato (1/2 duration)
Irregular groupings are notated above the duration line
Duration letters will always appear directly above the note/fret number it represents the
duration for.  Duration letters with no fret number below them represent rests.  Multi-
bar rests are notated in the form Wxn, where n is the number of bars to rest for.  Low
melody durations appear below the staff

Tablature Legend
----------------
 h   - hammer-on
 p   - pull-off
 b   - bend
 pb  - pre-bend
 r   - bend release (if no number after the r, then release immediately)
 /\  - slide into or out of (from/to "nowhere")
 s   - legato slide
 S   - shift slide
  - natural harmonic
[n]  - artificial harmonic
n(n) - tapped harmonic
 ~   - vibrato
 tr  - trill
 T   - tap
 TP  - trem. picking
 PM  - palm muting
\n/  - tremolo bar dip; n = amount to dip
 \n  - tremolo bar down
 n/  - tremolo bar up
/n\  - tremolo bar inverted dip
 =   - hold bend; also acts as connecting device for hammers/pulls
 <>  - volume swell (louder/softer)
 x   - on rhythm slash represents muted slash
 o   - on rhythm slash represents single note slash

Misc Legend
-----------
 |  - bar
||  - double bar
||o - repeat start
o|| - repeat end
*|  - double bar (ending)
 :  - bar (freetime)
 $  - Segno
 &  - Coda
Tempo markers -  = BPM(8/16=s8/s16), where s8 = swing 8ths, s16 = swing 16ths


***************************************************************************************
* Generated using Power Tab Editor by Brad Larsen - http://powertab.guitarnetwork.org *
***************************************************************************************
comments
print report bad tab
I want to post or [tab]
guest
You may want to rate the tab now too:
select rating
Please do not post tabs as comments. Select "correction" instead!