Oops, an error
Loading. Please wait.

Alcohol Tab

ver2
ver2

Whole song

Interactive

More versions @911Tabs.com
27,634 views 18 this week
3 commentsread comments
1 2 3 4 5
accurate
x 4
Autoscroll
+/-
esc
set tempo
stop
Contributor
Hey! There's an official Ultimate Guitar app which is ideal
for learning songs when you're away from computer. Get the app
WARNING: You are trying to view
                                    content from Ultimate-Guitar.com
                                    in an unauthorized application,
                                    which is prohibited.

                                    Please use an official Ultimate
                                    Guitar Tabs application for iPhone,
                                    iPad or Android to access legitimate
                                    chords, guitar, bass, and drum tabs
                                    from Ultimate-Guitar.com database.

                                    Type "ultimate guitar tabs" in Apple
                                    App Store's or Android Market's
                                    search to find the application.
Alcohol
Brad Paisly
Time Well Wasted

Tuning: Standard (EADGBE) 
 
E|---------------------------------------------------------------------|
B|---------------------------------------------------------------------|
G|---------------------------------------------------------------------|
D|--4------------------------------------------------------------------|
A|--4----------------4b—4pb—(4)pbr-------------------------------------|
E|--2------------2---------------------2b—(2)pbr--0--------------------|

E|----------------------------------------------------------------0----|
B|----------------------------------------------------------------3----|
G|-----------------------------------------------------------0h1-------|
D|--4------------------------------------------------------------------|
A|--4---------------2--x---4fb—4pb—(4)pbr -----------------------------|
E|--2----------2---------------------------2b—(2)pbr--0----------------|

(0:12)

E|----------------0-----------------------0----------------------------|
B|----------------0--------------------1--------0--------------------7-|
G|-4---0h1----0h1---------0h1-----4--------------------4-------6-------|
D|-4---2----0---------------------4--------------------4-------4-------|
A|-2---2---------------2---—------2--------------------2-------x-------|
E|-----0-----------------------------------—-------------------6-------|

E|---------------------------------------------------------------------|
B|---------------------------------------------------------------------|
G|-------------------4-----------------------------------------------4-|
D|--------6-------4-----------------4---4-----4~---------------------4-|
A|-----6-------2----------——-------------------------4fb-----(4)pbr----|
E|--4--------------------------2-----------2—--------------------------|

E|------0------------------------------0-------------------------------|
B|---------3------------------------------1----------------------------|
G|------------2b----(2)pbr---0h1---------------4-----------------0-----|
D|---------------------------------2-----------4-----------------------|
A|----------------------——---------------------2-----------------------|
E|--0-------------------------------------—----------------------------|

E|---------------------------------------------------------------------|
B|--9---10---9------------------(9)\--------------------------7--------|
G|--7b—-7pb—-7pb—(7)pbr---------(7)\----------4------------------------|
D|----------------------9-------(9)\-------------4--------4------------|
A|----------------------—-—--------------2-----------------------------|
E|---------------------------------------------------/6----------------|

E|---------------------------------------------------------------------|
B|---------------------------------------------------------------------|
G|-----------------4---------------------------------------------------|
D|--------6\----4---------------4---4~------------------------4--------|
A|-----6-----2------------—-4—----------4----------------4h6-----4h6-4-|
E|--4--------------------2------------------2----2--/6-----------------|

(0:52)

E|------------------------0----------------------------------0---------|
B|---------------------------0----------------------------------0------|
G|------------------------------1--------------------------1-----------|
D|---------------------------------------------------------------------|
A|--2--------2------------—-—--------2-------2---4—4h6------------2h4--|
E|--------4---------0-----------------------------------0--------------|

E|-------------------------------------------------------------------2-|
B|------------7----------------------------5---------------------------|
G|----------------------------4---------6-----6------------4---2b------|
D|---------4----------------4--------6--------------6--------4----4----|
A|--2------------6--------—-—-----4------------------------------------|
E|------6----------4-----2------------------------------2--------------|


E|------------------------0--------0--------0--------------------------|
B|---------------------------------------------------------------------|
G|----------4------2b--------2pb~—----2pb------2b---(2)pbr-----------4-|
D|-----4-----------------------------------------------------0h1-------|
A|--2--------------------—-—--------------------------------------2----|
E|---------------------------------------------------------------------|

E|-------0-------------------------------------------------------------|
B|---------------------------------------------------------------------|
G|--0h1--------------------------------------4------4------------------|
D|---------------------------------1------------------4----------------|
A|-------------2--0-------—-2—---------/6-------4----------------------|
E|-----------0-------4--0-------0-------------------------2b----2------|

E|---------------------------------------------------------------------|
B|---------------------------------------------------------------------|
G|---------------------------------------------------------------------|
D|---------------------------------------------------------------------|
A|--2-----4b—-4pb—(4)pbr-----------—-—-----------2---2-2-4b—4pb—(4)pbr-|
E|------2---------------2b--(2)pbr--0-----4-4-4------------------------|


E|--------------------------------------------------|
B|--------------------------------------------------|
G|--------------------------------------------------|
D|--------------------------------------------------|
A|----------------------—-—-------------------------|
E|-2b-(2)pbr----------------------------------------|



(1:40)

E|-------------------------------0-----------------0-------------------|
B|-------------------------------0-------------------------------------|
G|--------------------0h1-----1-----------0h1-------------------4------|
D|-------------------------2-------------------2----------1-----4------|
A|----------2------------—-—----------2-------------------0-----2------|
E|--0---4---------0------------------------------------0---------------|

E|---------------------------------------------------------------------|
B|------------------------------------------7----7---------------------|
G|--------6-------------------4-------------6h8--6h8-------------------|
D|--4----------------6-----4-------------------------------------------|
A|--x-------------6-----2--—-—-----------------------------------------|
E|--6----------4------------------2------------------------------------|

E|---------------------------------------------------------------------|
B|---------------------------------------------2-----------------------|
G|--6----6------------4--------4----4-------------4b—(4)pbr------------|
D|--6h8--6h8-------------6--4-------4----------------------4--(4)\-2-4-|
A|----------------------—-—---------2----------------------------4-----|
E|---------------------------------------------------------------------|

E|---------------------------------------------------------------------|
B|---------------------------------------------------------------------|
G|---------------------------------------------------------------------|
D|--0h1--------------------2-------------------------------------------|
A|------2---------------2-—-—-----4b----4--2--4—4b----2----------4-----|
E|----------------2--4----------2-------------------------6------------|


E|---------------------------------------------------------------------|
B|---------------------------------------------------------------------|
G|--------------4------------------------------------------------------|
D|--------4b—4b--4pb----(4)pbr--------------------------2b----(2)pbr---|
A|-----6-----------------—-—----6\4--4---------------------------------|
E|--4--------------------------------------2---5b---2------------------|

E|---------------0---------------------------------0-------------------|
B|------------------0---------------------------------0----------------|
G|------------1--------1-----------------------1---------1-------------|
D|------------------------------------------2--------------------------|
A|--2--------------------—-2—--2h4--2----------------------------------|
E|------0-------------------------------0------------------------------|


E|---------------------------------------------------------------------|
B|--------------7---------------------------5----------5---------------|
G|----------------------------4----------6-----6---------4pb—(4)pbr----|
D|----------4---------------4---------6-----------6--------------------|
A|--2--------------------—-—-------4-----------------------------------|
E|------6-----------4---2----------------------------------------------|

E|---------------------------------------------------------------------|
B|---------------------------------------------------------------------|
G|---------------------------------------------------------------------|
D|--4—6b--6b--(6)pbr----4-----------------6----------------------------|
A|----------------------—-—----2----2/------5--0---------------4b--2---|
E|------------------------------------------------2b---0---4b--------0-|
E|--------------------------------------------------------------------|
B|------------------------------------------------5-------------------|
G|------------------------------------4--------4-----------4----------|
D|--------------------------------4b----4---2-----------4-------------|
A|--4--0----------------2—4h5—-2—--------------------6----------------|
E|--------3h4---0---4b------------------------------------------------|

E|--------------------------------------------------------------------|
B|--------5--4--------------------------------------------------------|
G|-----------------4------------------4-------------------------------|
D|-----6--------4---------------------4-------------------------------|
A|--4--------------------—-—----------2-----4b—4pb—(4)pbr-------------|
E|----------------------2---2-2-2--------2------------------2---2-----|

E|--------------------------------------------------------------------|
B|--------------------------------------------------------------------|
G|--------------------------------------------------------------------|
D|------------------------------------------4-------------------------|
A|----------------------—-—----------2--------------------------------|
E|--4b---4b---4b---(4)pbr---2--4b-------------------------------------|

(3:04)

E|-----------------------0-------0----------------------------5-------|
B|----------------------------------4--0----------------------5-------|
G|----------------0h1p0-----2b-----------2pb—(2)pbr-----4—4~------4/--|
D|-------------2-------------------------------------4------------4/--|
A|--2--------------------—-—------------------------------------------|
E|--------------------------------------------------------------------|

E|--------------------------------------------------------------------|
B|--9--------------7------------------------------------7-------------|
G|----7b---(7)pbr----7------------------------------------------------|
D|--------------9------9—8p7---7------------------------------------4-|
A|----------------------—-—--9---7\5---7-5b----------------------/6---|
E|-----------------------------------7--------(7)\-/6------4--2-------|

E|--------------------------------------------------------------------|
B|--------------------------------------------------------------------|
G|--6---(6)\----------------------------------------------------------|
D|--6---(6)\----------------------------------------------------------|
A|----------------------—-—----------------------2----2---------------|
E|-------------2-2-2-2-2-2-2-2-2-2-2-2-2-2-2-2h4----------------------|


E|-----------------------------------------16-----14--12-------------|
B|----------------------------------------------------12-------------|
G|-----9-----7-----6-----4------------/16-----16--------11pb-(11)pbr-|
D|-----x-----x-----x-----x-------------------------------------------|
A|--7--7-----5-----4-----2---—-—---2---------------------------------|
E|--------0-----0-----0-----0—4b-------------------------------------|

E|-------------------------------------------------------------------|
B|------9--------------------------------------5--4------------------|
G|--------9pb--(9)---(9)pbr--------------4-----------4---------------|
D|--11-------------------------11p9---------------------4------------|
A|----------------------—-—---------4n6-----4------------------------|
E|----------------------------------------------------------2~------|

E|-------------------------------------------0----------------------|
B|-------------------------------------------0----------------------|
G|------------------------------------------------------------------|
D|------------------------------------------------------------------|
A|--2------4b---4pb---(4)pbr--------—-—-----------2----------2—4b---|
E|------2--------------------2b—(2)pbr---0-----------2--2h4---------|

E|----------------------------0--------------------------------------|
B|----------------------------0--------------------------------------|
G|-------------------------------------------------------------------|
D|-------------------------------6b—(6)pbr-----7—5b------------------|
A|--4pb—(4)pbr------------------—-—---------7---------7--5-----------|
E|--------------2b---(2)pbr--------------------------------7-6-5-----|


E|------7---7--------------------------------------7-----------------|
B|---------7---------7---------------------------7----10p7-----------|
G|--9b---------10-----9--10-9-7-0---7b-------9b----------------------|
D|--------------------------------9----9-----------------------------|
A|----------------------—-—------------------------------------------|
E|-------------------------------------------------------------------|


E|-------------------------------------------------------------------|
B|----7--------------------------------------------------------------|
G|--9---10p7p0---9-7-------------------------------------------------|
D|-------------9------9p7p0---9---7----------------------------------|
A|----------------------—-—-9-------8-----5-8p9p5p0---7h8p7p5--------|
E|------------------------------------5h7-----------7---------7~(7)\-|

E|------------------------------------------------------------------------|
B|--2~---(2)/---12---------------12-12---15/--19--19---19-----------------|
G|--4~---(4)/---14----14-14-14b---------------20--21---18b---16----16-18b-|
D|--------------------------------------------------------------18--------|
A|----------------------—-—-----------------------------------------------|
E|------------------------------------------------------------------------|

comments
print report bad tab
3 comments total.
0 reply
Mukuro wrote on July 20 2009, 11:57 am

Good tab mate, but the opening chords are a B & E..you have and F# indicated in the opening riff..

0 reply
ameteurtabz wrote on July 10 2010, 04:11 am

I enjoyed this so far, and thanks for tabbing this out. but in the key of B, you are notating a C natural note on string 2 fret 1 a couple of times. It doesn't sit right. This is one of the parts and should be similar to the first line: Could be a mistake where you are tabbing the correct fret but on the wrong strings. would help if you fixed this since most people I know would just trust the tab over their ear.
E-----0----|
B-------0--|
B E G-0h1------|
"I could make you believe any lie"

0 reply
ameteurtabz wrote on July 10 2010, 04:12 am

E-----0---|
B-------0-|
G-0h1-----|

is what i meant.

I want to post or [tab]
guest
You may want to rate the tab now too:
select rating
Please do not post tabs as comments. Select "correction" instead!