Oops, an error
Loading. Please wait.

Cluster Pluck Tab

3,791 views 1 this week
no commentswrite comment
1 2 3 4 5
excellent!
x 2
Autoscroll
+/-
esc
set tempo
stop
Contributor
WARNING: You are trying to view
                                    content from Ultimate-Guitar.com
                                    in an unauthorized application,
                                    which is prohibited.

                                    Please use an official Ultimate
                                    Guitar Tabs application for iPhone,
                                    iPad or Android to access legitimate
                                    chords, guitar, bass, and drum tabs
                                    from Ultimate-Guitar.com database.

                                    Type "ultimate guitar tabs" in Apple
                                    App Store's or Android Market's
                                    search to find the application.
Solo #9
E-9/10-----------------------------------------------------------|
B-9/10----------12-----------------------------------------------|
G------13-12-10-12-10-9----------------------12b(13)-------------|
D-----------------------12----12\10----10-12---------12p10----10-|
A--------------------------12-------12---------------------12----|
E----------------------------------------------------------------|


E----------------------------------------------------------------|
B--------------------1p0-----------------------------------------|
G----------------7\5-----2-1-0-----2-----------------------------|
D------------------------------3h4---3-2-0-----0-----------------|
A-12-11-10-7-8h9---------------------------0-3---3p2p0---0-----0-|
E------------------------------------------------------3---1-4---|


E---------------------------0-7-----|
B-------------------2-3-4/5---7b(9)-|
G-----------0-3-4-5-----------------|
D-----0-3-4-------------------------|
A-3-4-------------------------------|
E-----------------------------------|

Solo #10
E----------------0---------------------0---------------------0-----|
B---------------------0---------------------0--------------------0-|
G-------------13---13---------------13---13---------------13--13---|
D-11/12-11/12-----------11/12-11/12-----------11/12-11/12----------|
A------------------------------------------------------------------|
E------------------------------------------------------------------|


E----------------0--12-------12-----9--7-5---------------------|
B-------------------12b(14)-(14)r12-10-8-5-7-5-----------------|
G------------------------------------------7-5h6---------------|
D-11/12-11/12-12---------------------------------7-5-7---------|
A------------------------------------------------------5-3h4/7-|
E--------------------------------------------------------------|

Solo #11
E-----0-------0-------0-------0-------0-------0---0------8\------8-|
B---0---0---0---0---0---0---0---0---0---0---0---0-0-8\---8\---8----|
G-1-------4-------7-------4-------7-------4-------1-9\-5----5------|
D-------------------------------------------------0----5----5------|
A------------------------------------------------------------------|
E------------------------------------------------------------------|

E-----------------------------------|
B---10---8---5------------------0h2-|
G-9----7---5-----7---5----------0h2-|
D--------------7---5-----7---5------|
A----------------------7---5--------|
E-----------------------------------|

Solo# 12
Tapping
E---------------------------------------12-14-15-14-12----------|
B-0h2t14p2t14p2p0h2t14p2t14p2p0h2t14\12----------------15-14-12-|
G-0h2t14p2t14p2p0h2t14p2t14p2p0h2t14\12-------------------------|
D---------------------------------------------------------------|
A---------------------------------------------------------------|
E---------------------------------------------------------------|


E----------------12-13-14-15-14-13-12----------------------|
B-------------------------------------14-15-16-17-16-15-14-|
G-14-12----12-14-------------------------------------------|
D-------14-------------------------------------------------|
A----------------------------------------------------------|
E----------------------------------------------------------|

E----------------------------------------------------------|
B----------------------------------------------------------|
G-14-15-16-17-16-15-14-------------------------------------|
D----------------------17-16-15-14-------------------------|
A----------------------------------17-16-15-14-------------|
E----------------------------------------------17-16-15-14-|


E----------------------|
B-------------------14-|
G-------------------14-|
D----------14-15-16----|
A-14-15-16-------------|
E----------------------|

Solo #13
E--12---------------------------15------15-----------------10-12-|
B-(14)r12-10---------10-15b(17)----(17)----(17)r15-12b(14)-------|
G------------12b(14)---------------------------------------------|
D----------------------------------------------------------------|
A----------------------------------------------------------------|
E----------------------------------------------------------------|

E------------------------------------------------------------------|
B-(14)r12-10----10\8---------8-----------------------------------5-|
G------------11------10b(12)---9\7-5---7---5b(6)-----5b(6)-7b(9)---|
D------------------------------------7---7-------7-5---------------|
A------------------------------------------------------------------|
E------------------------------------------------------------------|


E------------|
B------------|
G-7b(9)7-5---|
D----------7-|
A------------|
E------------|

Solo # 14
E-------0-------0-------0-------0-------0------------0---------0----|
B-------------------------------------------------------------------|
G-12/14------14------14------14------14------14b(16)------(16)------|
D---------17------17------17------17------17-----------17--------17-|
A-------------------------------------------------------------------|
E-------------------------------------------------------------------|


E---------------15p12----------------------------------------------|
B---------------------15-17p15p13----------10-8------------7-------|
G-(16)r14-14-14-------------------14-12---------9-8-\7p5---7---4/5-|
D---------------------------------------14---------------7---7-----|
A------------------------------------------------------------------|
E------------------------------------------------------------------|


E---------------------|
B---------------------|
G---------------------|
D-7-5-----------------|
A-----7-6-5-3p0-------|
E---------------3b(5)-|

Solo #15
E----------------------------------------------------------------|
B------8------8------8------8\------5-----5-----5-----5\---------|
G------9-0----9-0----9-0----9\------5-0---5-0---5-0---5\---------|
D-9/11-----11-----11-----11-----6/8-----8-----8-----8--------7-9-|
A--------------------------------------------------------7/9-----|
E----------------------------------------------------------------|


E------------------------------------10/13-10----------------------|
B------------7-8-9-10-------10----8-----------12-11-10-------------|
G-9---7-9h10-------------------------------------------12-10-------|
D---9-----------------10/11----11----------------------------12-10-|
A------------------------------------------------------------------|
E------------------------------------------------------------------|


E---------|
B---------|
G---------|
D-9-------|
A---10h12-|
E---------|

Solo #16
E-----------------------------------------------------------5---------|
B-4/5---------------------------------------------3-----------8-------|
G-----8-7-5h6-----------------------------0h2-4h5---0-7b(9)-----(9)r7-|
D-------------7-5-------------2---------------------------------------|
A-----------------7\6-0-5-3h4---4-2-3h4/7-----------------------------|
E---------------------------------------------------------------------|


E----------8------7----------------------------------------------------|
B------------------------10----------------5-------5--------7--------8-|
G-0-9b(11)---(11)---(11)----(11)r9p7-7b(9)---7b(9)---9b(11)---10b(12)--|
D----------------------------------------------------------------------|
A----------------------------------------------------------------------|
E----------------------------------------------------------------------|

E----------------------------------------------------------------|
B---------9-12-14-15-14-12-14-12---------------------------------|
G-11b(13)------------------------15-14-12\11-------9\7---5b(6)---|
D--------------------------------------------14-11-----9-------7-|
A----------------------------------------------------------------|
E----------------------------------------------------------------|
comments
We did not receive enough feedback on this tab! Please rate:
print report bad tab
1 2 3 4 5
I want to post or [tab]
guest
You may want to rate the tab now too:
select rating
Please do not post tabs as comments. Select "correction" instead!