Oops, an error
Loading. Please wait.

The Story Tab

ver1
ver1

Solo

Whole song

More versions @911Tabs.com
10,352 views 12 this week
1 commentread comment
1 2 3 4 5
excellent!
x 1
Autoscroll
+/-
esc
set tempo
stop
Contributor
Difficulty
novice
Hey! There's an official Ultimate Guitar app which is ideal
for learning songs when you're away from computer. Get the app
WARNING: You are trying to view
                                    content from Ultimate-Guitar.com
                                    in an unauthorized application,
                                    which is prohibited.

                                    Please use an official Ultimate
                                    Guitar Tabs application for iPhone,
                                    iPad or Android to access legitimate
                                    chords, guitar, bass, and drum tabs
                                    from Ultimate-Guitar.com database.

                                    Type "ultimate guitar tabs" in Apple
                                    App Store's or Android Market's
                                    search to find the application.
Brandi Carlile - The Story (solo)
from the album The Story (2007)
song written by Phil Hanseroth

Tabbed by noisebloom
lagrange5 at gmail you know the rest

I don't know if Tim Hanseroth might play this a bit differently,
but the notes are correct, and the fretting feels natural. See what
you think.

Standard tuning

e|----7-9-11-11--7-----------------11-9-7-9--9-6----------------|
B|------------------7----------------------------7--7-5---------|
G|--------------------9--8-------8----------------------6-------|
D|--------------------------------------------------------------|
A|--------------------------------------------------------------|
E|--------------------------------------------------------------|

e|----9-7-6-7--7-4-----------------4-6-7-7--4--0---------|
B|-----------------4-4----------------------------0------|
G|--6------------------6-4-------4-------------------1---|
D|-------------------------------------------------------|
A|-------------------------------------------------------|
E|-------------------------------------------------------|

you can also play the last part like this ...
e|---------------------------------4-6-7-7--4------------|
B|---------------------------------------------5---------|
G|-------------------------------4----------------4------|
D|---------------------------------------------------6---|
A|-------------------------------------------------------|
E|-------------------------------------------------------|

Thanks and enjoy!
comments
We did not receive enough feedback on this tab! Please rate:
print report bad tab
1 2 3 4 5
1 comment total.
0 reply
totowalaby wrote on December 17 2013, 01:31 pm

Thanks a lot, great tab, sounds perfect!

I want to post or [tab]
guest
You may want to rate the tab now too:
select rating
Please do not post tabs as comments. Select "correction" instead!