Oops, an error
Loading. Please wait.

The Storm Tab

2,581 views 42 this week
1 commentread comment
1 2 3 4 5
excellent!
x 4
Autoscroll
+/-
esc
set tempo
stop
Contributor
Difficulty
Tuning
intermediate
A E A D F# B
WARNING: You are trying to view
                                    content from Ultimate-Guitar.com
                                    in an unauthorized application,
                                    which is prohibited.

                                    Please use an official Ultimate
                                    Guitar Tabs application for iPhone,
                                    iPad or Android to access legitimate
                                    chords, guitar, bass, and drum tabs
                                    from Ultimate-Guitar.com database.

                                    Type "ultimate guitar tabs" in Apple
                                    App Store's or Android Market's
                                    search to find the application.
BREAKDOWN OF SANITY

THE STORM

A-E-A-D-F#-B


TABBED BY andherembrace






DIGI DELAY 420MS WITH MULTIPLE REPEATS

                                                        ^
----------------------------------------------1--------1-0---0--|
-------3------------------3-----------------3--------------3----|
-----0------------------0---------------------------------------|
----------------------------------------------------------------|
-1-----------------3--------------------------------------------|
--------------------------------------0-------------------------|

----------------------------------------------------------------|
-------3------------------3--------------------3----------------|
-----0------------------0---------------------------------------|
--------------------------------------------0-------------------|
-1-----------------3--------------------------------------------|
--------------------------------------0-------------------------|

                                                        ^
----------------------------------------------1--------1-0---0--|
-------3------------------3-----------------3--------------3----|
-----0------------------0---------------------------------------|
----------------------------------------------------------------|
-1-----------------3--------------------------------------------|
--------------------------------------0-------------------------|

----------------------------------------------------------------|
-------3------------------3--------------------3----------------|
-----0------------------0---------------------------------------|
--------------------------------------------0-------------------|
-1-----------------3--------------------------------------------|
--------------------------------------0-------------------------|




0:27

TURN ON WAH PEDAL ALMOST CLOSED [TOE DOWN] TO GET TONE

-------------------------------------------------|
-------------------------------------------------|
-------------------------------------------------|
0-0--0-0--0-0--0-0-0-0----0-0-0---0-0--0-0-0-0---|
0-0--0-0--0-0--0-0-0-0----0-0-0---0-0--0-0-0-0---|
0-0|-0-0|-0-0|-0-0-0-0|---0-0-0|--0-0--0-0-0-0|--|
                          *       * *
-------------------------------------------------|
-------------------------------------------------|
-------------------------------------------------|
0-0--0-0--0-0--0-0-0-0----0-0-0---0000-0-0-0-0---|
0-0--0-0--0-0--0-0-0-0----0-0-0---0000-0-0-0-0---|
0-0|-0-0|-0-0|-0-0-0-0|---0-0-0|--0000-0-0-0-0|--|
                          *       


-------------------------------------------------|
-------------------------------------------------|
-------------------------------------------------|
0-0--0-0--0-0--0-0-0-0----0-0-0---0-0--0-0-0-0---|
0-0--0-0--0-0--0-0-0-0----0-0-0---0-0--0-0-0-0---|
0-0|-0-0|-0-0|-0-0-0-0|---0-0-0|--0-0--0-0-0-0|--|
                          *       * *
-------------------------------------------------|
-------------------------------------------------|
-------------------------------------------------|
0-0--0-0--0-0--0-0-0-0----0-0-0---0000-0-0-0-0---|
0-0--0-0--0-0--0-0-0-0----0-0-0---0000-0-0-0-0---|
0-0|-0-0|-0-0|-0-0-0-0|---0-0-0|--0000-0-0-0-0|--|
                          *       



0:41

-----------------------------------------------------------------------|
-----------------------------------------------------------------------|
-----------------------------------------------------------------------|
-----------------------------------------------------------------------|
-----13---13-----13-----13---13---12~------13---13-----888-10---8---77-|
-0-0----0----0-0----0-0----0----0------0-0----0----0-0--------8---8----|

--------------------------------------------------------------------------|
--------------------------------------------------------------------------|
--------------------------------------------------------------------------|
--------------------------------------------------------------------------|
-----13---13-----13-----13---13---12~------13---13--------7-8-10---12-10-8|
-0-0----0----0-0----0-0----0----0------0-0----0----0-0-8--------10--------|


-----------------------------------------------------------------------|
-----------------------------------------------------------------------|
-----------------------------------------------------------------------|
-----------------------------------------------------------------------|
-----13---13-----13-----13---13---12~------13---13-----888-10---8---77-|
-0-0----0----0-0----0-0----0----0------0-0----0----0-0--------8---8----|

--------------------------------------------------------------------------|
--------------------------------------------------------------------------|
--------------------------------------------------------------------------|
--------------------------------------------------------------------------|
-----13---13-----13-----13---13---12~------13---13--------7-8-10---12-10-8|
-0-0----0----0-0----0-0----0----0------0-0----0----0-0-8--------10--------|


-----------------------------------------------------------------------|
-----------------------------------------------------------------------|
-----------------------------------------------------------------------|
-----------------------------------------------------------------------|
-----13---13-----13-----13---13---12~------13---13-----888-10---8---77-|
-0-0----0----0-0----0-0----0----0------0-0----0----0-0--------8---8----|

--------------------------------------------------------------------------|
--------------------------------------------------------------------------|
--------------------------------------------------------------------------|
--------------------------------------------------------------------------|
-----13---13-----13-----13---13---12~------13---13--------7-8-10---12-10-8|
-0-0----0----0-0----0-0----0----0------0-0----0----0-0-8--------10--------|




1:09
-----------------------------------------------------------------|
-----------------------------------------------------------------|
-----------------------------------------------------------------|
-----------------5-------7-5-------------------------------------|
-8---5---7---7-8-----8-------8-7-8---5---7---8---3---5---8---7---|
---0---0---0-------0---0-----------0---0---0---0---0---0---0---0-|
   *   *   *       *   *           *   *   *   *   *   *   *   *

1:14

L
---------------------------------------------------------------------------|
---------------------------------------------------------------------------|
---------------------------------------------------------------------------|
--------------------8--------10-8------------------------------------------|
12---8---10---10-12-----10-------12-10-12---8---10---12---7---8---12---10--|
---0---0----0---------0----0--------------0---0----0----0---0---0----0----0|
   *   *    *         *    *              *   *    *    *   *   *    *    *
R
-----------------------------------------------------------------|
-----------------------------------------------------------------|
-----------------------------------------------------------------|
-----------------5-------7-5-------------------------------------|
-8---5---7---7-8-----8-------8-7-8---5---7---8---3---5---8---7---|
---0---0---0-------0---0-----------0---0---0---0---0---0---0---0-|
   *   *   *       *   *           *   *   *   *   *   *   *   *



L
-----------------------------------------------------------------|
-----------------------------------------------------------------|
-----------------------------------------------------------------|
-----------------5-------7-5-------------------------------------|
-8---5---7---7-8-----8-------8-7-8---5---7---8---3---5---8---7---|
---0---0---0-------0---0-----------0---0---0---0---0---0---0---0-|
   *   *   *       *   *           *   *   *   *   *   *   *   *
R
---------------------------------------------------------------|
---------------------------------------------------------------|
---------------------------------------------------------------|
-0-0-------------------0-0-0-0-0--0-0--------------------------|
-0-0-------------------0-0-0-0-0--0-0--------------------------|
-0-0-------------------0-0-0-0-0--0-0--------------------------|
 * *                   * * * * *  * *


L
----------------------------------------------------------|
----------------------------------------------------------|
----------------------------------------------------------|
-----------------5-------7-5---------------------PH)~~----|
-8---5---7---7-8-----8-------8-7-8---5---7---8----3-------|
---0---0---0-------0---0-----------0---0---0---0----------|
   *   *   *       *   *           *   *   *   *   
R
----------------------------------------------------------|
----------------------------------------------------------|
----------------------------------------------------------|
-0-0-------------------0-0-0-0-0--0-0------------PH)~~----|
-0-0-------------------0-0-0-0-0--0-0-------------5-------|
-0-0-------------------0-0-0-0-0--0-0---------------------|
 * *                   * * * * *  * *



1:29

L
-----------------------------------------------------------|
-----------------------------------------------------------|
----------------------------------------14-12-121010-9-910-|
-0-0-------------------0-0-0-0-0--0-0----X--X--X-X-X-X-X-X-|
-0-0-------------------0-0-0-0-0--0-0---12\10-10\8-8\7-7/8-|
-0-0-------------------0-0-0-0-0--0-0----------------------|
 * *                   * * * * *  * *
R
----------------------------------------------------------|
----------------------------------------------------------|
---------------------------------------10-9-9-7-7-5-5-7---|
-0-0-------------------0-0-0-0-0--0-0---X-X-X-X-X-X-X-X---|
-0-0-------------------0-0-0-0-0--0-0---8\7-7\5-5\3-3/5---|
-0-0-------------------0-0-0-0-0--0-0---------------------|
 * *                   * * * * *  * *


L
-----------------------------------------------------------|
-----------------------------------------------------------|
----------------------------------------14-12-121010-9-910-|
-0-0-------------------0-0-0-0-0--0-0----X--X--X-X-X-X-X-X-|
-0-0-------------------0-0-0-0-0--0-0---12\10-10\8-8\7-7/8-|
-0-0-------------------0-0-0-0-0--0-0----------------------|
 * *                   * * * * *  * *
R
----------------------------------------------------------|
----------------------------------------------------------|
---------------------------------------10-9-9-7-7-5-5-7---|
-0-0-------------------0-0-0-0-0--0-0---X-X-X-X-X-X-X-X---|
-0-0-------------------0-0-0-0-0--0-0---8\7-7\5-5\3-3/5---|
-0-0-------------------0-0-0-0-0--0-0---------------------|
 * *                   * * * * *  * *



1:39

L
-----------------------------------------------------------------------|
-----------------------------------------------------------------------|
-----------------------------------------------------------------------|
-0--------------------------------7-8-----------------1010101010101010-|
-0--------------------------------7-8-----------------1010101010101010-|
-0-|------------------------------7-8-|---------------1010101010101010-|

R
-----------------------------------------------------------------------|
-----------------------------------------------------------------------|
-----------------------------------------------------------------------|
-----------------------------------------------------------------------|
5------7-----8---7-----8-----10---8-----10-----12----10----8----7----8-|
--0-0----0-0---0---7-7---7-7----7---8-8----8-8----8-----10---10---10---|
  * *    * *   *   * *   * *    *   * *    * *    *      *    *    *

L
-------------------------------------------------------------------|
--------------------------------------------------10\8-8\6-6\5-5/6-|
-------------------------------------------------------------------|
-------------------------------------------------------------------|
-5------7-----8---7-----5-----3---5-----7-----8--------------------|
---0-0----0-0---0---7-7---7-7---7---8-8---8-8---8------------------|
   * *    * *   *   * *   * *   *   * *   * *   *
R
-------------------------------------------------------------------|
-------------------------------------------------------------------|
--------------------------------------------------10\9-9\7-7\5-5/7-|
-------------------------------------------------------------------|
-5------7-----8---7-----5-----3---5-----7-----8--------------------|
---0-0----0-0---0---7-7---7-7---7---8-8---8-8---8------------------|
   * *    * *   *   * *   * *   *   * *   * *   *


1:48

B
-----------------------------------------------------------------------|
-----------------------------------------------------------------------|
-----------------------------------------------------------------------|
-----------------------------------------------------------------------|
5------7-----8---7-----8-----10---8-----10-----12----10----8----7----8-|
--0-0----0-0---0---7-7---7-7----7---8-8----8-8----8-----10---10---10---|
  * *    * *   *   * *   * *    *   * *    * *    *      *    *    *

L
-------------------------------------------------------------------|
--------------------------------------------------10\8-8\6-6\5-5/6-|
-------------------------------------------------------------------|
-------------------------------------------------------------------|
-5------7-----8---7-----5-----3---5-----7-----8--------------------|
---0-0----0-0---0---7-7---7-7---7---8-8---8-8---8------------------|
   * *    * *   *   * *   * *   *   * *   * *   *
R
-------------------------------------------------------------------|
-------------------------------------------------------------------|
--------------------------------------------------10\9-9\7-7\5-5/7-|
-------------------------------------------------------------------|
-5------7-----8---7-----5-----3---5-----7-----8--------------------|
---0-0----0-0---0---7-7---7-7---7---8-8---8-8---8------------------|
   * *    * *   *   * *   * *   *   * *   * *   *

B
-----------------------------------------------------------------------|
-----------------------------------------------------------------------|
-----------------------------------------------------------------------|
-----------------------------------------------------------------------|
5------7-----8---7-----8-----10---8-----10-----12----10----8----7----8-|
--0-0----0-0---0---7-7---7-7----7---8-8----8-8----8-----10---10---10---|
  * *    * *   *   * *   * *    *   * *    * *    *      *    *    *

L
-------------------------------------------------------------------|
--------------------------------------------------10\8-8\6-6\5-5/6-|
-------------------------------------------------------------------|
-------------------------------------------------------------------|
-5------7-----8---7-----5-----3---5-----7-----8--------------------|
---0-0----0-0---0---7-7---7-7---7---8-8---8-8---8------------------|
   * *    * *   *   * *   * *   *   * *   * *   * 
R
-------------------------------------------------------------------|
-------------------------------------------------------------------|
--------------------------------------------------10\9-9\7-7\5-5/7-|
-------------------------------------------------------------------|
-5------7-----8---7-----5-----3---5-----7-----8--------------------|
---0-0----0-0---0---7-7---7-7---7---8-8---8-8---8------------------|
   * *    * *   *   * *   * *   *   * *   * *   *



2:08


1
---------------------------8--------------------------------8---|
-6---6-------6---6-------6--------6---6-------6---6-------6-----|
---9---9-------9---9----------------9---9-------9---9-----------|
----------------------------------------------------------------|
----------------------------------------------------------------|
----------------------------------------------------------------|

2
--------------------------------------------------------------------|
--------------------------------------------------------------------|
--------------------------------------------------------------------|
-000000000---000000000---00--00--000000000--000000-0-0-0-0---0-0-0--|
-000000000---000000000---00--00--000000000--000000-0-0-0-0---0-0-0--|
-000000000---000000000---00--00--000000000--000000-0-0-0-0---0-0-0--|
 *********   *********   **  **  *********  ****** * * * *   * * *

1
---------------------------8---------------------------------------|
-6---6-------6---6-------6-----------------------------------------|
---9---9-------9---9-----------------------------------------------|
---------------------------------000000000--000000-0-0-0-0---0-0-0-|
---------------------------------000000000--000000-0-0-0-0---0-0-0-|
---------------------------------000000000--000000-0-0-0-0---0-0-0-|
                                 *********  ****** * * * *   * * *
2
--------------------------------------------------------------------|
--------------------------------------------------------------------|
--------------------------------------------------------------------|
-000000000---000000000---00--00--000000000--000000-0-0-0-0---0-0-0--|
-000000000---000000000---00--00--000000000--000000-0-0-0-0---0-0-0--|
-000000000---000000000---00--00--000000000--000000-0-0-0-0---0-0-0--|
 *********   *********   **  **  *********  ****** * * * *   * * *



2:19
B
--------------------------------------------------------------------|
--------------------------------------------------------------------|
--------------------------------------------------------------------|
-000000000---000000000---00--00--000000000--000000-0-0-0-0---0-0-0--|
-000000000---000000000---00--00--000000000--000000-0-0-0-0---0-0-0--|
-000000000---000000000---00--00--000000000--000000-0-0-0-0---0-0-0--|
 *********   *********   **  **  *********  ****** * * * *   * * *

--------------------------------------------------------------------|
--------------------------------------------------------------------|
--------------------------------------------------------------------|
000000000---000000000---00--00--000000000--000000-0--0--0---0--0--0-|
000000000---000000000---00--00--000000000--000000-0--0--0---0--0--0-|
000000000---000000000---00--00--000000000--000000-0--0--0---0--0--0-|
*********   *********   **  **  *********  ****** *  *  *   *  *  *  



2:29

1
---------------------------8--------------------------------8---|
-6---6-------6---6-------6--------6---6-------6---6-------6-----|
---9---9-------9---9----------------9---9-------9---9-----------|
----------------------------------------------------------------|
----------------------------------------------------------------|
----------------------------------------------------------------|

2
--------------------------------------------------------------------|
--------------------------------------------------------------------|
--------------------------------------------------------------------|
-000000000---000000000---00--00--000000000--000000-0-0-0-0---0-0-0--|
-000000000---000000000---00--00--000000000--000000-0-0-0-0---0-0-0--|
-000000000---000000000---00--00--000000000--000000-0-0-0-0---0-0-0--|
 *********   *********   **  **  *********  ****** * * * *   * * *


1
---------------------------8-----------------------------------|
-6---6-------6---6-------6--------6---6-------6----6-----6-----|
---9---9-------9---9----------------9---9-------9----9-9---9-9-|
---------------------------------------------------------------|
---------------------------------------------------------------|
---------------------------------------------------------------|

2
--------------------------------------------------------------------|
--------------------------------------------------------------------|
--------------------------------------------------------------------|
000000000---000000000---00--00--000000000--000000-0--0--0---0--0--0-|
000000000---000000000---00--00--000000000--000000-0--0--0---0--0--0-|
000000000---000000000---00--00--000000000--000000-0--0--0---0--0--0-|
*********   *********   **  **  *********  ****** *  *  *   *  *  *




2:39
1
----------------------------8-----------------------------8----|
-6---6--------6---6-------6----6---6--------6---6-------6------|
---9---9--------9---9------------9---9--------9---9------------|
---------10-----------10---------------10-----------10---------|
---------------------------------------------------------------|
---------------------------------------------------------------|

2
---------------------------------------------------------------|
---------------------------------------------------------------|
---------------------------------------------------------------|
-12-----------------------------15-----------------------------|
-10-----------------------------13-----------------------------|
-8------------------------------10-----------------------------|


1
---------------------------8-------------------------------8--|
-6---6-------------------6----6---6----------------------6----|
---9---9------------------------9---9-------------------------|
--------------------------------------------------------------|
--------------------------------------------------------------|
--------------------------------------------------------------|

2
---------------------------------------------------------------|
---------------------------------------------------------------|
---------------------------------------------------------------|
-14------------------------------------------------------------|
-12------------------------------------------------------------|
-12------------------------------------------------------------|


1
----------------------------8-----------------------------8----|
-6---6--------6---6-------6----6---6--------6---6-------6------|
---9---9--------9---9------------9---9--------9---9------------|
---------10-----------10---------------10-----------10---------|
---------------------------------------------------------------|
---------------------------------------------------------------|

2
---------------------------------------------------------------|
---------------------------------------------------------------|
---------------------------------------------------------------|
-12-----------------------------15-----------------------------|
-10-----------------------------13-----------------------------|
-8------------------------------10-----------------------------|


1
---------------------------8-------------------------------8--|
-6---6-------------------6----6---6----------------------6----|
---9---9------------------------9---9-------------------------|
--------------------------------------------------------------|
--------------------------------------------------------------|
--------------------------------------------------------------|

2
---------------------------------------------------------------|
---------------------------------------------------------------|
---------------------------------------------------------------|
-14------------------------------------------------------------|
-12------------------------------------------------------------|
-12------------------------------------------------------------|




3:06

L
--------------------------------------|
--------------------------------------|
--------------------------------------|
-0-0--------0-0------------0--0-0-----|
-0-0--------0-0------------0--0-0-----|
-0-0--------0-0------------0--0-0-----|
 * *        * *            *  * * 
R
--------------------------------------|
--------------------------------------|
--------------------------------------|
-----0-0---------0-0-0-0--------------|
-----0-0---------0-0-0-0--------------|
-----0-0---------0-0-0-0--------------|
     * *         * * * *


B
------------------------------------------------|
------------------------------------------------|
------------------------------------------------|
-0-0--0-0--0-0--0-0-0-0--0--0-0--0--0--0-0-0-0--|
-0-0--0-0--0-0--0-0-0-0--0--0-0--0--0--0-0-0-0--|
-0-0--0-0--0-0--0-0-0-0--0--0-0--0--0--0-0-0-0--|
 * *  * *  * *  * * * *  *  * *  *  *  * * * *

                                4TH FRET
---------------------------------------------------|
---------------------------------------------------|
----------------------------------X-X-X-X-X-X-X-X--|
-0-0--0-0--0-0--0-0-0-0--0--0-0---X-X-X-X-X-X-X-X--|
-0-0--0-0--0-0--0-0-0-0--0--0-0---X-X-X-X-X-X-X-X--|
-0-0--0-0--0-0--0-0-0-0--0--0-0---X-X-X-X-X-X-X-X--|
 * *  * *  * *  * * * *  *  * *  

------------------------------------------------|
------------------------------------------------|
------------------------------------------------|
-0-0--0-0--0-0--0-0-0-0--0--0-0--0--0--0-0-0-0--|
-0-0--0-0--0-0--0-0-0-0--0--0-0--0--0--0-0-0-0--|
-0-0--0-0--0-0--0-0-0-0--0--0-0--0--0--0-0-0-0--|
 * *  * *  * *  * * * *  *  * *  *  *  * * * *

                                4TH FRET
---------------------------------------------------|
---------------------------------------------------|
----------------------------------X-X-X-X-X-X-X-X--|
-0-0--0-0--0-0--0-0-0-0--0--0-0---X-X-X-X-X-X-X-X--|
-0-0--0-0--0-0--0-0-0-0--0--0-0---X-X-X-X-X-X-X-X--|
-0-0--0-0--0-0--0-0-0-0--0--0-0---X-X-X-X-X-X-X-X--|
 * *  * *  * *  * * * *  *  * *  


1
------------------------------------------------------------------|
------------------------------------------------------------------|
------------------------------------------------------------------|
12-000-12-000-12-000-12-0-12-000-12-0-12-000-15-0-15-0-14-15-15-0-|
------------------------------------------------------------------|
------------------------------------------------------------------|
 * *** *  ***  * ***  * *  * ***  * *  * ***  * *  * *  *  *  * *
2
---------------------------------------------------------------|
---------------------------------------------------------------|
---------------------------------------------------------------|
-12------------------------------------------------------------|
-10------------------------------------------------------------|
-8-------------------------------------------------------------|


1
--------------------------------------------------------------|
--------------------------------------------------------------|
--------------------------------------------------------------|
-12-000-12-000-12-000-15-0-15-000-12-0-12-000-----------------|
--------------------------------------------------------------|
--------------------------------------------------------------|
  * *** *  ***  * ***  * *  * ***  * *  * ***
2
---------------------------------------------------------------|
---------------------------------------------------------------|
---------------------------------------------------------------|
-15------------------------------------------------------------|
-13------------------------------------------------------------|
-10-------------------------------------------0-0-0-0-0-0-0-0--|




------------------------------------------------------------------|
------------------------------------------------------------------|
------------------------------------------------------------------|
15-000-15-000-15-000-15-0-15-000-15-0-15-000-19-0-19-0-17-19-17-0-|
------------------------------------------------------------------|
------------------------------------------------------------------|
 * *** *  ***  * ***  * *  * ***  * *  * ***  * *  * *  *  *  * *
2
------------------------------------------------|
------------------------------------------------|
------------------------------------------------|
-0-0--0-0--0-0--0-0-0-0--0--0-0--0--0--0-0-0-0--|
-0-0--0-0--0-0--0-0-0-0--0--0-0--0--0--0-0-0-0--|
-0-0--0-0--0-0--0-0-0-0--0--0-0--0--0--0-0-0-0--|
 * *  * *  * *  * * * *  *  * *  *  *  * * * *

1
------------------------------------------------------------------|
------------------------------------------------------------------|
------------------------------------------------------------------|
15-000-15-000-15-000-15-0-15-000-15-0-15-000-15-0-15-0-14-15-14-0-|
------------------------------------------------------------------|
------------------------------------------------------------------|
 * *** *  ***  * ***  * *  * ***  * *  * ***  * *  * *  *  *  * *

2
--------------------------------------------------|
--------------------------------------------------|
--------------------------------------------------|
-0-0--0-0--0-0--0-0-0-0--0--0-0--000000--0-0-0-0--|
-0-0--0-0--0-0--0-0-0-0--0--0-0--000000--0-0-0-0--|
-0-0--0-0--0-0--0-0-0-0--0--0-0--000000--0-0-0-0--|
 * *  * *  * *  * * * *  *  * *  ******  * * * *

1
------------------------------------------------------------------|
------------------------------------------------------------------|
------------------------------------------------------------------|
12-000-12-000-12-000-12-0-12-000-12-0-12-000-15-0-15-0-14-15-14-0-|
------------------------------------------------------------------|
------------------------------------------------------------------|
 * *** *  ***  * ***  * *  * ***  * *  * ***  * *  * *  *  *  * *

2
------------------------------------------------|
------------------------------------------------|
------------------------------------------------|
-0-0--0-0--0-0--0-0-0-0--0--0-0--0--0--0-0-0-0--|
-0-0--0-0--0-0--0-0-0-0--0--0-0--0--0--0-0-0-0--|
-0-0--0-0--0-0--0-0-0-0--0--0-0--0--0--0-0-0-0--|
 * *  * *  * *  * * * *  *  * *  *  *  * * * *

1
------------------------------------------------------------------|
------------------------------------------------------------------|
------------------------------------------------------------------|
12-000-12-000-12-000-12-0-12-000-12-0-12-000-14-15-14-0-12-14-12-0|
------------------------------------------------------------------|
------------------------------------------------------------------|
 * *** *  ***  * ***  * *  * ***  * *  * ***  *  *  * *  *  *  * *

2
--------------------------------------------------|
--------------------------------------------------|
--------------------------------------------------|
-0-0--0-0--0-0--0-0-0-0--0--0-0--000000--0-0-0-0--|
-0-0--0-0--0-0--0-0-0-0--0--0-0--000000--0-0-0-0--|
-0-0--0-0--0-0--0-0-0-0--0--0-0--000000--0-0-0-0--|
 * *  * *  * *  * * * *  *  * *  ******  * * * *
1 comment total.
0 reply
andherembrace wrote on November 6 2012, 02:16 pm

check out my cover,

https://www.facebook.com/photo.php?v=529576400387028&set=vb.100000040195827&type=3&theater

I want to post or [tab]
guest
You may want to rate the tab now too:
select rating
Please do not post tabs as comments. Select "correction" instead!