Oops, an error
Loading. Please wait.

Blow Me Away Tab

ver4
ver4

Whole song

More versions @911Tabs.com
9,216 views 6 this week
2 commentsread comments
1 2 3 4 5
accurate
x 5
Autoscroll
+/-
esc
set tempo
stop
Contributor
Difficulty
Tuning
novice
C G C F A D
WARNING: You are trying to view
                                    content from Ultimate-Guitar.com
                                    in an unauthorized application,
                                    which is prohibited.

                                    Please use an official Ultimate
                                    Guitar Tabs application for iPhone,
                                    iPad or Android to access legitimate
                                    chords, guitar, bass, and drum tabs
                                    from Ultimate-Guitar.com database.

                                    Type "ultimate guitar tabs" in Apple
                                    App Store's or Android Market's
                                    search to find the application.
                Blow Me Away                                   


              Breaking Benjamin

Tabbed by- Trevor Winchenbaugh
Email-ZeroSkater7286@aol.com
AIM-ZeroSkater7286


D||-------|-------|-------|-------|-------|-------|-------|-------|
A||-------|-------|-------|-------|-------|-------|-------|-------|
F||-------|-------|-------|-------|-------|-------|-------|-------|
C||-------|-------|-------|-------|-------|-------|-------|-------|
G||-------|-------|-------|-------|-------|-------|-------|-------|
C||-------|-------|-------|-------|-------|-------|-------|-------|


  E   S S  E  E   S S  E  E   E     E   S S  E  E   S S  E  E   E   
---------------------------------|---------------------------------|
---------------------------------|---------------------------------|
---------------------------------|---------------------------------|
-----12-0-12-----12-0-12---------|-----12-0-12-----12-0-12---------|
--0-----------0-----------0--10--|--0-----------0-----------7--10--|
--0-----------0-----------0--10--|--0-----------0-----------7--10--|


  E   S S  E  E   S S  E  E   E     E   S S  E  E   S S  E  E  E   
---------------------------------|--------------------------------|
---------------------------------|--------------------------------|
---------------------------------|--------------------------------|
-----12-0-12-----12-0-12---------|-----12-0-12-----12-0-12--------|
--0-----------0-----------0--10--|--0-----------0-----------3--2--|
--0-----------0-----------0--10--|--0-----------0-----------3--2--|


  W                   W                   W                   W                 
-------------------|-------------------|-------------------|-------------------|
-------------------|-------------------|-------------------|-------------------|
-------------------|-------------------|-------------------|-------------------|
--0----------------|--L----------------|--L----------------|--L----------------|
--0----------------|--L----------------|--L----------------|--L----------------|
--0----------------|--L----------------|--L----------------|--L----------------|


  W                   W                   W                   W                 
-------------------|-------------------|-------------------|-------------------|
-------------------|-------------------|-------------------|-------------------|
-------------------|-------------------|-------------------|-------------------|
--0----------------|--L----------------|--L----------------|--L----------------|
--0----------------|--L----------------|--L----------------|--L----------------|
--0----------------|--L----------------|--L----------------|--L----------------|


  E  E  E  E  E  E  E  E     E  E  E  E  E  E  E  E     E  Q     Q    Q     E   
--5--5--5--5--5--5--5--5--|--3--3--3--3--3--3--3--3--|-------------------------|
--3--3--3--3--3--3--3--3--|--1--1--1--1--1--1--1--1--|-------------------------|
--------------------------|--------------------------|-------------------------|
--------------------------|--------------------------|-----7s----2----4s----0--|
--------------------------|--------------------------|--0----------------------|
--------------------------|--------------------------|--0----------------------|


  E  Q     Q    Q     E     E  E  E  E  E  E  E  E     E  E  E  E  E  E  E  E   
-------------------------|--5--5--5--5--5--5--5--5--|--3--3--3--3--3--3--3--3--|
-------------------------|--3--3--3--3--3--3--3--3--|--1--1--1--1--1--1--1--1--|
-------------------------|--------------------------|--------------------------|
--L--7s----2----4s----0--|--------------------------|--------------------------|
-------------------------|--------------------------|--------------------------|
-------------------------|--------------------------|--------------------------|


  Q    E   Q     E   E   E      E   Q     Q     E   Q     
----------------------------|----------------------------|
----------------------------|----------------------------|
----------11----12--14--15--|---L--14----12----11--14----|
--0----L--------------------|----------------------------|
--0----L---9----10--12--13--|---L--12----10-----9--12----|
--0----L--------------------|----------------------------|


  Q    E   Q     E   E   E      E   Q     Q     E   E   E   
----------------------------|------------------------------|
----------------------------|------------------------------|
----------11----12--14--15--|---L--14----12----11--12--11--|
--0----L--------------------|------------------------------|
--0----L---9----10--12--13--|---L--12----10-----9--10---9--|
--0----L--------------------|------------------------------|


  Q    E   Q     E   E   E      E   Q     Q     E   Q     
----------------------------|----------------------------|
----------------------------|----------------------------|
----------11----12--14--15--|---L--14----12----11--14----|
--0----L--------------------|----------------------------|
--0----L---9----10--12--13--|---L--12----10-----9--12----|
--0----L--------------------|----------------------------|


  Q    E   Q     E   E   E      E   Q     Q     E   E   E   
----------------------------|------------------------------|
----------------------------|------------------------------|
----------11----12--14--15--|---L--14----12----11--12--11--|
--0----L--------------------|------------------------------|
--0----L---9----10--12--13--|---L--12----10-----9--10---9--|
--0----L--------------------|------------------------------|


  E   S S  E  E   S S  E  E   E     E   S S  E  E   S S  E  E  E   
---------------------------------|--------------------------------|
---------------------------------|--------------------------------|
---------------------------------|--------------------------------|
-----12-0-12-----12-0-12---------|-----12-0-12-----12-0-12--------|
--0-----------0-----------0--10--|--0-----------0-----------3--2--|
--0-----------0-----------0--10--|--0-----------0-----------3--2--|


  W                   W                   W                   W                 
-------------------|-------------------|-------------------|-------------------|
-------------------|-------------------|-------------------|-------------------|
-------------------|-------------------|-------------------|-------------------|
--0----------------|--L----------------|--L----------------|--L----------------|
--0----------------|--L----------------|--L----------------|--L----------------|
--0----------------|--L----------------|--L----------------|--L----------------|


  W                   W                   W                   W                 
-------------------|-------------------|-------------------|-------------------|
-------------------|-------------------|-------------------|-------------------|
-------------------|-------------------|-------------------|-------------------|
--0----------------|--L----------------|--L----------------|--L----------------|
--0----------------|--L----------------|--L----------------|--L----------------|
--0----------------|--L----------------|--L----------------|--L----------------|


  E  E  E  E  E  E  E  E     E  E  E  E  E  E  E  E     E  Q     Q    Q     E   
--5--5--5--5--5--5--5--5--|--3--3--3--3--3--3--3--3--|-------------------------|
--3--3--3--3--3--3--3--3--|--1--1--1--1--1--1--1--1--|-------------------------|
--------------------------|--------------------------|-------------------------|
--------------------------|--------------------------|-----7s----2----4s----0--|
--------------------------|--------------------------|--0----------------------|
--------------------------|--------------------------|--0----------------------|


  E  Q     Q    Q     E     E  E  E  E  E  E  E  E     E  E  E  E  H         
-------------------------|--5--5--5--5--5--5--5--5--|--3--3--3--3-----------|
-------------------------|--3--3--3--3--3--3--3--3--|--1--1--1--1-----------|
-------------------------|--------------------------|-----------------------|
--L--7s----2----4s----0--|--------------------------|-----------------------|
-------------------------|--------------------------|-----------------------|
-------------------------|--------------------------|-----------------------|


  Q    E   Q     E   E   E      E   Q     Q     E   Q     
----------------------------|----------------------------|
----------------------------|----------------------------|
----------11----12--14--15--|---L--14----12----11--14----|
--0----L--------------------|----------------------------|
--0----L---9----10--12--13--|---L--12----10-----9--12----|
--0----L--------------------|----------------------------|


  Q    E   Q     E   E   E      E   Q     Q     E   E   E   
----------------------------|------------------------------|
----------------------------|------------------------------|
----------11----12--14--15--|---L--14----12----11--12--11--|
--0----L--------------------|------------------------------|
--0----L---9----10--12--13--|---L--12----10-----9--10---9--|
--0----L--------------------|------------------------------|


  Q    E   Q     E   E   E      E   Q     Q     E   Q     
----------------------------|----------------------------|
----------------------------|----------------------------|
----------11----12--14--15--|---L--14----12----11--14----|
--0----L--------------------|----------------------------|
--0----L---9----10--12--13--|---L--12----10-----9--12----|
--0----L--------------------|----------------------------|


  Q    E   Q     E   E   E      E   Q     Q     E   E   E     W                 
----------------------------|------------------------------|-------------------|
----------------------------|------------------------------|-------------------|
----------11----12--14--15--|---L--14----12----11--12--11--|-------------------|
--0----L--------------------|------------------------------|-------------------|
--0----L---9----10--12--13--|---L--12----10-----9--10---9--|--5----------------|
--0----L--------------------|------------------------------|-------------------|


                       PM PM PM PM PM PM PM PM PM PM PM PM PM PM PM PM  
   W                   S  S  S  S  S  S  S  S  S  S  S  S  S  S  S  S   
--------------------|--------------------------------------------------|
--------------------|--------------------------------------------------|
--------------------|--------------9--9--7--7--------------------------|
--------------------|--------7--7--------------7--7--------5--5--2--2--|
--/7----------------|--5--5--------------------------8--8--------------|
--------------------|--------------------------------------------------|


  S S S S S S S S S S S S S S S S    S S S S S S S S E  S S S S S S  
----------------------------------|---------------------------------|
----------------------------------|---------------------------------|
----------8-8-7-7-----------------|---------------------------------|
------7-7---------7-7-----5-5-2-2-|---------------------------------|
--5-5-----------------8-8---------|--0-0-7-7-6-6-5-5----8-8-6-6-5-5-|
----------------------------------|--0-0-7-7------------8-8---------|


  S S S S S S S S E  E   Q       S S S S S S S S E  S S S S S S  
------------------------------|---------------------------------|
------------------------------|---------------------------------|
------------------------------|---------------------------------|
------------------------------|---------------------------------|
--7-7-0-0-6-6-5-5----8s--1----|--0-0-7-7-6-6-5-5----8-8-6-6-5-5-|
--7-7-0-0------------8s--1----|--0-0-7-7------------8-8---------|


  S S S S S S S S E  E  S E  S    S E  E  S T T T E  E  S S E  T  
-------------------------------|---------------------------------|
-------------------------------|---------------------------------|
-------------------------------|---------------------------------|
-------------------------------|---------------------------------|
--7-7-0-0-6-6-5-5----8----1----|---------------------------------|
--7-7-0-0------------8----1----|--0-0--0--0-0-0-0-0--0--0-0-0----|


  S E  E  S T T T E  E  Q    T    S E  E  S T T T E  E  S S E  T  
-------------------------------|---------------------------------|
-------------------------------|---------------------------------|
------------------------8------|---------------------------------|
------------------------8------|---------------------------------|
------------------------6------|---------------------------------|
--0-0--0--0-0-0-0-0--0---------|--0-0--0--0-0-0-0-0--0--0-0-0--L-|


  S E  E  S T T T E  E  Q    T    S E  E  S T T T E  E  S S E  T  
-------------------------------|---------------------------------|
-------------------------------|---------------------------------|
------------------------8------|---------------------------------|
------------------------8------|---------------------------------|
------------------------6------|---------------------------------|
--0-0--0--0-0-0-0-0--0---------|--0-0--0--0-0-0-0-0--0--0-0-0--L-|


  S E  E  S T T T E  E  Q    T         Q    E   Q     E   E   E   
-------------------------------|----|----------------------------|
-------------------------------|----|----------------------------|
-------------------------------|----|----------11----12--14--15--|
-------------------------------|----|--0----L--------------------|
-------------------------------|----|--0----L---9----10--12--13--|
--0-0--0--0-0-0-0-0--0---------|----|--0----L--------------------|


   E   Q     Q     E   Q       Q    E   Q     E   E   E   
----------------------------|----------------------------|
----------------------------|----------------------------|
---L--14----12----11--14----|----------11----12--14--15--|
----------------------------|--0----L--------------------|
---L--12----10-----9--12----|--0----L---9----10--12--13--|
----------------------------|--0----L--------------------|


   E   Q     Q     E   E   E     Q    E   Q     E   E   E   
------------------------------|----------------------------|
------------------------------|----------------------------|
---L--14----12----11--12--11--|----------11----12--14--15--|
------------------------------|--0----L--------------------|
---L--12----10-----9--10---9--|--0----L---9----10--12--13--|
------------------------------|--0----L--------------------|


   E   Q     Q     E   Q       Q    E   Q     E   E   E   
----------------------------|----------------------------|
----------------------------|----------------------------|
---L--14----12----11--14----|----------11----12--14--15--|
----------------------------|--0----L--------------------|
---L--12----10-----9--12----|--0----L---9----10--12--13--|
----------------------------|--0----L--------------------|


   E   Q     Q     E   E   E     S E  E  S T T T E  E  S S E  T  
------------------------------|---------------------------------|
------------------------------|---------------------------------|
---L--14----12----11--12--11--|---------------------------------|
------------------------------|---------------------------------|
---L--12----10-----9--10---9--|---------------------------------|
------------------------------|--0-0--0--0-1-0-0-0--0--1-0-0--L-|


  S E  E  S T T T E  E  Q    T    S E  E  S T T T E  E  S S E  T  
-------------------------------|---------------------------------|
-------------------------------|---------------------------------|
------------------------8------|---------------------------------|
------------------------8------|---------------------------------|
------------------------6------|---------------------------------|
--0-0--0--0-1-0-0-0--0---------|--0-0--0--0-0-0-0-0--0--1-0-0--L-|


  S E  E  S T T T E  E  Q    T   
-------------------------------||
-------------------------------||
-------------------------------||
-------------------------------||
-------------------------------||
--0-0--0--0-1-0-0-0--0---------||









RHYTHM GUITAR








D||-------|-------|-------|-------|-------|-------|-------|-------|-------|
A||-------|-------|-------|-------|-------|-------|-------|-------|-------|
F||-------|-------|-------|-------|-------|-------|-------|-------|-------|
C||-------|-------|-------|-------|-------|-------|-------|-------|-------|
G||-------|-------|-------|-------|-------|-------|-------|-------|-------|
C||-------|-------|-------|-------|-------|-------|-------|-------|-------|


-------|-------|-------|-------|-------|-------|-------|-------|-------|-------|
-------|-------|-------|-------|-------|-------|-------|-------|-------|-------|
-------|-------|-------|-------|-------|-------|-------|-------|-------|-------|
-------|-------|-------|-------|-------|-------|-------|-------|-------|-------|
-------|-------|-------|-------|-------|-------|-------|-------|-------|-------|
-------|-------|-------|-------|-------|-------|-------|-------|-------|-------|


          E  E  E  E  E  E  E  E      E   E   E   E   E   E   E   E   
-------|--------------------------|----------------------------------|
-------|--------------------------|----------------------------------|
-------|--------------------------|----------------------------------|
-------|--------------------------|----------------------------------|
-------|--8--8--8--8--8--8--8--8--|--10--10--10--10--10--10--10--10--|
-------|--8--8--8--8--8--8--8--8--|--10--10--10--10--10--10--10--10--|


  S E  E.  S S S S E  Q       S S S S S S S S S E  S E   E   
---------------------------|--------------------------------|
---------------------------|--------------------------------|
---------------------------|--------------------------------|
---------------------------|--------------------------------|
--0-0--------0---0---------|--0-0---0-----0----------7--10--|
--0-0------0-0---0---------|--0-0---0---0-0----------7--10--|


  E  E  E  E  E  E  E  E      E   E   E   E   E   E   E   E   
--------------------------|----------------------------------|
--------------------------|----------------------------------|
--------------------------|----------------------------------|
--------------------------|----------------------------------|
--8--8--8--8--8--8--8--8--|--10--10--10--10--10--10--10--10--|
--8--8--8--8--8--8--8--8--|--10--10--10--10--10--10--10--10--|


  Q    E   E  Q    Q       Q    E  H        E      Q    E   E  Q    Q     
------------------------|-----------------------|------------------------|
------------------------|-----------------------|------------------------|
------------------------|-----------------------|------------------------|
--0----L--12--L----7----|--8----L--5--------L/--|--0----L--12--L----7----|
--0----L--12--L----7----|--8----L--5--------L/--|--0----L--12--L----7----|
--0----L--12--L----7----|--8----L--5--------L/--|--0----L--12--L----7----|


  Q    E   H        E     Q    E   E  Q    Q       Q    E  H        E    
-----------------------|------------------------|-----------------------|
-----------------------|------------------------|-----------------------|
-----------------------|------------------------|-----------------------|
--8----L--10--------L--|--0----L--12--L----7----|--8----L--5--------L/--|
--8----L--10--------L--|--0----L--12--L----7----|--8----L--5--------L/--|
--8----L--10--------L--|--0----L--12--L----7----|--8----L--5--------L/--|


  Q    E   E  Q    Q       Q    E   H        E                           
------------------------|-----------------------|-------|-------|-------|
------------------------|-----------------------|-------|-------|-------|
------------------------|-----------------------|-------|-------|-------|
--0----L--12--L----7----|--8----L--10--------L--|-------|-------|-------|
--0----L--12--L----7----|--8----L--10--------L--|-------|-------|-------|
--0----L--12--L----7----|--8----L--10--------L--|-------|-------|-------|


-------|-------|-------|-------|-------|-------|-------|
-------|-------|-------|-------|-------|-------|-------|
-------|-------|-------|-------|-------|-------|-------|
-------|-------|-------|-------|-------|-------|-------|
-------|-------|-------|-------|-------|-------|-------|
-------|-------|-------|-------|-------|-------|-------|


  E  E  E  E  E  E  E  E      E   E   E   E   E   E   E   E   
--------------------------|----------------------------------|
--------------------------|----------------------------------|
--------------------------|----------------------------------|
--------------------------|----------------------------------|
--8--8--8--8--8--8--8--8--|--10--10--10--10--10--10--10--10--|
--8--8--8--8--8--8--8--8--|--10--10--10--10--10--10--10--10--|


  S E  E.  S S S S E  Q       S S S S S S S S S E  S E   E   
---------------------------|--------------------------------|
---------------------------|--------------------------------|
---------------------------|--------------------------------|
---------------------------|--------------------------------|
--0-0--------0---0---------|--0-0---0-----0----------7--10--|
--0-0------0-0---0---------|--0-0---0---0-0----------7--10--|


  E  E  E  E  E  E  E  E      E   E   E   E  H           Q    E   E  Q    Q     
--------------------------|---------------------------|------------------------|
--------------------------|---------------------------|------------------------|
--------------------------|---------------------------|------------------------|
--------------------------|---------------------------|--0----L--12--L----7----|
--8--8--8--8--8--8--8--8--|--10--10--10--10-----------|--0----L--12--L----7----|
--8--8--8--8--8--8--8--8--|--10--10--10--10-----------|--0----L--12--L----7----|


  Q    E  H        E      Q    E   E  Q    Q       Q    E   H        E   
-----------------------|------------------------|-----------------------|
-----------------------|------------------------|-----------------------|
-----------------------|------------------------|-----------------------|
--8----L--5--------L/--|--0----L--12--L----7----|--8----L--10--------L--|
--8----L--5--------L/--|--0----L--12--L----7----|--8----L--10--------L--|
--8----L--5--------L/--|--0----L--12--L----7----|--8----L--10--------L--|


  Q    E   E  Q    Q       Q    E  H        E      Q    E   E  Q    Q     
------------------------|-----------------------|------------------------|
------------------------|-----------------------|------------------------|
------------------------|-----------------------|------------------------|
--0----L--12--L----7----|--8----L--5--------L/--|--0----L--12--L----7----|
--0----L--12--L----7----|--8----L--5--------L/--|--0----L--12--L----7----|
--0----L--12--L----7----|--8----L--5--------L/--|--0----L--12--L----7----|


  Q    E   H        E     E  E  E  E  E  E  E  E   
-----------------------|--------------------------|
-----------------------|--------------------------|
-----------------------|--------------------------|
--8----L--10--------L--|--8--8--8--8--8--8--8--8--|
--8----L--10--------L--|--8--8--8--8--8--8--8--8--|
--8----L--10--------L--|--8--8--8--8--8--8--8--8--|


   E   E   E   E   E   E   E   E                                             
----------------------------------|-----|-----|-----|-----|-----|-----|-----|
----------------------------------|-----|-----|-----|-----|-----|-----|-----|
----------------------------------|-----|-----|-----|-----|-----|-----|-----|
--10--10--10--10--10--10--10--10--|-----|-----|-----|-----|-----|-----|-----|
--10--10--10--10--10--10--10--10--|-----|-----|-----|-----|-----|-----|-----|
--10--10--10--10--10--10--10--10--|-----|-----|-----|-----|-----|-----|-----|


                                      Q    E   E  Q    Q     
-----|-----|-----|-----|-----|-----|------------------------|
-----|-----|-----|-----|-----|-----|------------------------|
-----|-----|-----|-----|-----|-----|------------------------|
-----|-----|-----|-----|-----|-----|--0----L--12--L----7----|
-----|-----|-----|-----|-----|-----|--0----L--12--L----7----|
-----|-----|-----|-----|-----|-----|--0----L--12--L----7----|


  Q    E  H        E      Q    E   E  Q    Q       Q    E   H        E   
-----------------------|------------------------|-----------------------|
-----------------------|------------------------|-----------------------|
-----------------------|------------------------|-----------------------|
--8----L--5--------L/--|--0----L--12--L----7----|--8----L--10--------L--|
--8----L--5--------L/--|--0----L--12--L----7----|--8----L--10--------L--|
--8----L--5--------L/--|--0----L--12--L----7----|--8----L--10--------L--|


  Q    E   E  Q    Q       Q    E  H        E      Q    E   E  Q    Q     
------------------------|-----------------------|------------------------|
------------------------|-----------------------|------------------------|
------------------------|-----------------------|------------------------|
--0----L--12--L----7----|--8----L--5--------L/--|--0----L--12--L----7----|
--0----L--12--L----7----|--8----L--5--------L/--|--0----L--12--L----7----|
--0----L--12--L----7----|--8----L--5--------L/--|--0----L--12--L----7----|


  Q    E   H        E                            
-----------------------|-----|-----|-----|-----||
-----------------------|-----|-----|-----|-----||
-----------------------|-----|-----|-----|-----||
--8----L--10--------L--|-----|-----|-----|-----||
--8----L--10--------L--|-----|-----|-----|-----||
--8----L--10--------L--|-----|-----|-----|-----||








Duration Legend
---------------
W - whole
H - half
Q - quarter
E - 8th
S - 16th
T - 32nd
X - 64th
. - note dotted
|-n-|  - n-tuplets


Tablature Legend
----------------
L - tied note
x - dead note
g - grace note
(n) - ghost note
> - accentuded note
NH - natural harmonic
AH - artificial harmonic
TH - tapped harmonic
SH - semi harmonic
PH - pitch harmonic
h - hammer on
p - pull off
b - bend
br - bendRelease
pb - preBend
pbr - preBendRelease
brb - bendReleaseBend
\n/ - tremolo bar dip
\n - tremolo bar dive
-/n - tremolo bar Release up
/n\ - tremolo bar inverted dip
/n - tremolo bar return
-\n - tremolo bar Release down
S - shift slide
s - legato slide
/ -  slide into from below or out of upwards
\ -  slide into from above or out of downwards
~ - vibrato
W - wide vibrato
tr - trill
TP - tremolo picking
T - tapping
S - slap
P - pop
< - fade in
^ - brush up
v - brush down
2 comments total.
-1 reply
b_ball_girl1021 wrote on April 30 2008, 12:33 pm

So you know the intro is not done by one guitar it is separated. second the second guitar does it on the 3rd string on the 7 fret pulling off on the open. On the 12th it doesn't sound as good. third in the pre-chorus one guitar does the 8 10 while the other does 1 3 listen its there. But otherwise not bad.

0 reply
U B the band wrote on November 3 2009, 06:38 pm

You didn't add the harmonics in the verses.

I want to post or [tab]
guest
You may want to rate the tab now too:
select rating
Please do not post tabs as comments. Select "correction" instead!