Oops, an error
Loading. Please wait.

Breakdown Tab

ver4
ver4

Intro

Whole song

More versions @911Tabs.com
1,225 views 3 this week
no commentswrite comment
1 2 3 4 5
please rate
Autoscroll
+/-
esc
set tempo
stop
Contributor
Difficulty
Tuning
novice
D# G# C# F# A# D#
WARNING: You are trying to view
                                    content from Ultimate-Guitar.com
                                    in an unauthorized application,
                                    which is prohibited.

                                    Please use an official Ultimate
                                    Guitar Tabs application for iPhone,
                                    iPad or Android to access legitimate
                                    chords, guitar, bass, and drum tabs
                                    from Ultimate-Guitar.com database.

                                    Type "ultimate guitar tabs" in Apple
                                    App Store's or Android Market's
                                    search to find the application.
Breakdown - Breaking Benjamin
Tuning: Drop D; tuned down 1/2 step

Included in this tab: Lead Guitar, Rhythm, and Piano



Piano Intro Arr. for Guitar
   
D#||-6----6------|-------------|-6----6------|-------------|-8----|
A#||---10---10---|-------------|---10---10---|-------------|------|
F#||-----------7-|-9-9-11-11~--|-----------7-|-9-9-11-11~--|------|
C#||-------------|-------------|-------------|-------------|------|
G#||-------------|-------------|-------------|-------------|------|
C#||-------------|-------------|-------------|-------------|------|

If you want to use a real piano the notes are,
Octave: Middle C 8va

A, G#, A, G#, D#, F, F, F#, F#, A, G#, A, G#, D#, F, F, F#, F#, C



Lead Guitar:

                                                      Q    Q    Q    Q     

D#||-------|-------|-------|-------|-------|-------|----------------------|
A#||-------|-------|-------|-------|-------|-------|----------------------|
F#||-------|-------|-------|-------|-------|-------|----------------------|
C#||-------|-------|-------|-------|-------|-------|----------------------|
G#||-------|-------|-------|-------|-------|-------|----------------------|
C#||-------|-------|-------|-------|-------|-------|----------------------|


    Q    E  E.   S  S S  S E.     Q    E  E.  E  S Q     
|------------------------------|------------------------|
|------------------------------|------------------------|
|*-----------------------------|-------------------8----|
|*--0-------0------------------|--0-------0---0----7----|
|---0-------0-----------10-9---|--0-------0---0----6----|
|---0-------0---12-10-0--------|--0-------0---0---------|


   Q    E  E.   S  S S  S E.     Q    E  E.  E  S Q       
|-----------------------------|-------------------------||
|-----------------------------|-------------------------||
|-----------------------------|--------------8----8----*||
|--0-------0------------------|--0-------0---7----7----*||
|--0-------0-----------10-9---|--0-------0---6----6-----||
|--0-------0---12-10-0--------|--0-------0--------------||


                      |-3-|                                                
   Q    E  E.  E  S E  S S S    W                   H        E   E  E   E   
|----------------------------|-------------------|-----------6------6------|
|----------------------3-----|-------------------|--------------10-----10--|
|--------------8----8----2---|-------------------|-------------------------|
|--0-------0---7----7------0-|--0----------------|--L----------------------|
|--0-------0---6----6--------|--0----------------|--L----------------------|
|--0-------0-----------------|--0----------------|--L----------------------|


   W                   H        E   E  E   E     W                 
|-------------------|-----------6------6------|-------------------|
|-------------------|--------------10-----10--|-------------------|
|--7----------------|--L----------------------|--7----------------|
|-------------------|-------------------------|-------------------|
|-------------------|-------------------------|-------------------|
|-------------------|-------------------------|-------------------|


   H        E   E  E   E     W                   H        E   E  E   E   
|-----------6------6------|-------------------|------------------6------|
|--------------10-----10--|-------------------|--------------10-----10--|
|--L----------------------|--7----------------|--L--------7-------------|
|-------------------------|-------------------|-------------------------|
|-------------------------|-------------------|-------------------------|
|-------------------------|-------------------|-------------------------|


   W                   H        E   E  E   E     W                 
|-------------------|-----------6------6------|-------------------|
|-------------------|--------------10-----10--|-------------------|
|--7----------------|--L----------------------|--7----------------|
|-------------------|-------------------------|-------------------|
|-------------------|-------------------------|-------------------|
|-------------------|-------------------------|-------------------|

                               No Distortion; Clean
                              
   H        E   E  E   E     E  E  E  E  H           E  E  E  E  H
|-----------6------6------|-----------------------|-----------------------|
|--------------10-----10--|--------------6--------|--------------5--------|
|--L----------------------|-----------7-----------|-----------7-----------|
|-------------------------|--------7--------------|--------7--------------|
|-------------------------|-----5-----------------|-----5-----------------|
|-------------------------|-----------------------|-----------------------|
 
   E  E  E  E  H           E  E  E  E  H
|-----------------------|-----------------------|
|--------------6--------|--------------5--------|
|-----------7-----------|-----------7-----------|
|--------7--------------|--------7--------------|
|-----5-----------------|-----5-----------------|
|-----------------------|-----------------------|

   E  E  E  E  H           E  E  E  E  H
|-----------------------|-----------------------|
|--------------6--------|--------------5--------|
|-----------7-----------|-----------7-----------|
|--------7--------------|--------7--------------|
|-----5-----------------|-----5-----------------|
|-----------------------|-----------------------|

   E  E  E  E  H           E  E  E  E  H
|-----------------------|-----------------------|
|--------------6--------|--------------5--------|
|-----------7-----------|-----------7-----------|
|--------7--------------|--------7--------------|
|-----5-----------------|-----5-----------------|
|-----------------------|-----------------------|


   E  E  E  E  E  E  E  E     E  E  E  E  E  E  E  E   
|--------------------------|--------------------------|
|--------------------------|--------------------------|
|--------------------------|--0--2--2--2--2--2--2--2--|
|--3--3--3--3--3--3--3--3--|--0--0--0--0--0--0--0--0--|
|--3--3--3--3--3--3--3--3--|--3--0--0--0--0--0--0--0--|
|--3--3--3--3--3--3--3--3--|--0--0--0--0--0--0--0--0--|

 
    E   E   E   E   E   E   E   E      E   E   E   E  E  E  E  E   
|----------------------------------|------------------------------|
|----------------------------------|------------------------------|
|----------------------------------|------------------------------|
|--13--13--13--13--13--13--13--13--|--15--15--15--15--1--0--1--2--|
|--11--11--11--11--11--11--11--11--|--13--13--13--13--1--0--1--2--|
|--11--11--11--11--11--11--11--11--|--13--13--13--13--1--0--1--2--|


   E  E  E  E  E  E  E  E     E  E  E  E  E  E  E  E   
|--------------------------|--------------------------|
|--------------------------|--------------------------|
|--------------------------|--0--2--2--2--2--2--2--2--|
|--3--3--3--3--3--3--3--3--|--0--0--0--0--0--0--0--0--|
|--3--3--3--3--3--3--3--3--|--3--0--0--0--0--0--0--0--|
|--3--3--3--3--3--3--3--3--|--0--0--0--0--0--0--0--0--|


    E   E  E   E  E   E  E   E      E   E   E   E  E  E  E  E   
|-------------------------------|------------------------------|
|-------------------------------|------------------------------|
|-------------------------------|------------------------------|
|--13--13-----13-----13-----13--|--15--15--15--15--1--0--1--2--|
|--11--11-----11-----11-----11--|--13--13--13--13--1--0--1--2--|
|--11--11-----11-----11-----11--|--13--13--13--13--1--0--1--2--|


   Q    E  E.   S  S S  S E.     Q    E  E.  E  S Q     
|-----------------------------|------------------------|
|-----------------------------|------------------------|
|-----------------------------|-------------------8----|
|--0-------0------------------|--0-------0---0----7----|
|--0-------0-----------10-9---|--0-------0---0----6----|
|--0-------0---12-10-0--------|--0-------0---0---------|


                                                    |-3-|                      
   Q    E  E.   S  S S  S E.     Q    E  E.  Q    S S S S    W                 
|-----------------------------|---------------------------|-------------------|
|-----------------------------|---------------------3-----|-------------------|
|-----------------------------|-----------------------2---|-------------------|
|--0-------0------------------|--0-------0--------------0-|--0----------------|
|--0-------0-----------10-9---|--0-------0----------------|--0----------------|
|--0-------0---12-10-0--------|--0-------0----------------|--0----------------|


   H        E   E  E   E     W                   H        E   E  E   E   
|-----------6------6------|-------------------|-----------6------6------|
|--------------10-----10--|-------------------|--------------10-----10--|
|-------------------------|--7----------------|--L----------------------|
|--L----------------------|-------------------|-------------------------|
|--L----------------------|-------------------|-------------------------|
|--L----------------------|-------------------|-------------------------|


   W                   H        E   E  E   E     W                 
|-------------------|-----------6------6------|-------------------|
|-------------------|--------------10-----10--|-------------------|
|--7----------------|--L----------------------|--7----------------|
|-------------------|-------------------------|-------------------|
|-------------------|-------------------------|-------------------|
|-------------------|-------------------------|-------------------|


                           
   H        E   E  E   E     E  E  E  E  H           E  E  E  E  H   
|------------------6------|-----------------------|-----------------------|
|--------------10-----10--|--------------6--------|--------------5--------|
|--L--------7-------------|-----------7-----------|-----------7-----------|
|-------------------------|--------7--------------|--------7--------------|
|-------------------------|-----5-----------------|-----5-----------------|
|-------------------------|-----------------------|-----------------------|

   E  E  E  E  H           E  E  E  E  H
|-----------------------|-----------------------|
|--------------6--------|--------------5--------|
|-----------7-----------|-----------7-----------|
|--------7--------------|--------7--------------|
|-----5-----------------|-----5-----------------|
|-----------------------|-----------------------|

   E  E  E  E  H           E  E  E  E  H
|-----------------------|-----------------------|
|--------------6--------|--------------5--------|
|-----------7-----------|-----------7-----------|
|--------7--------------|--------7--------------|
|-----5-----------------|-----5-----------------|
|-----------------------|-----------------------|

   E  E  E  E  H           E  E  E  E  H
|-----------------------|-----------------------|
|--------------6--------|--------------5--------|
|-----------7-----------|-----------7-----------|
|--------7--------------|--------7--------------|
|-----5-----------------|-----5-----------------|
|-----------------------|-----------------------|

   E  E  E  E  E  E  E  E     E  E  E  E  E  E  E  E   
|--------------------------|--------------------------|
|--------------------------|--------------------------|
|--------------------------|--0--2--2--2--2--2--2--2--|
|--3--3--3--3--3--3--3--3--|--0--0--0--0--0--0--0--0--|
|--3--3--3--3--3--3--3--3--|--3--0--0--0--0--0--0--0--|
|--3--3--3--3--3--3--3--3--|--0--0--0--0--0--0--0--0--|


    E   E   E   E   E   E   E   E      E   E   E   E  E  E  E  E   
|----------------------------------|------------------------------|
|----------------------------------|------------------------------|
|----------------------------------|------------------------------|
|--13--13--13--13--13--13--13--13--|--15--15--15--15--1--0--1--2--|
|--11--11--11--11--11--11--11--11--|--13--13--13--13--1--0--1--2--|
|--11--11--11--11--11--11--11--11--|--13--13--13--13--1--0--1--2--|


   E  E  E  E  E  E  E  E     E  E  E  E  E  E  E  E   
|--------------------------|--------------------------|
|--------------------------|--------------------------|
|--------------------------|--0--2--2--2--2--2--2--2--|
|--3--3--3--3--3--3--3--3--|--0--0--0--0--0--0--0--0--|
|--3--3--3--3--3--3--3--3--|--3--0--0--0--0--0--0--0--|
|--3--3--3--3--3--3--3--3--|--0--0--0--0--0--0--0--0--|


    E   E  E   E  E   E  E   E      E   E   E   E  E  E  E  E   
|-------------------------------|------------------------------|
|-------------------------------|------------------------------|
|-------------------------------|------------------------------|
|--13--13-----13-----13-----13--|--15--15--15--15--1--0--1--2--|
|--11--11-----11-----11-----11--|--13--13--13--13--1--0--1--2--|
|--11--11-----11-----11-----11--|--13--13--13--13--1--0--1--2--|


   W                   W                   W                 
|-------------------|-------------------|-------------------|
|-------------------|-------------------|-------------------|
|-------------------|-------------------|-------------------|
|--0----------------|--L----------------|--L----------------|
|--0----------------|--L----------------|--L----------------|
|--0----------------|--L----------------|--L----------------|


                        |-3-| |-3-| |-3-| |-3-| |-3-| |-3-| |-3-| |-3-|  
    W                   S S S S S S S S S S S S S S S S S S S S S S S S  
|--------------------|--------------------------------------------------|
|--------------------|--------------------------------------------------|
|--------------------|--7-7-7-7-7-7-7-7-7-7-7-7-7-7-7-7-7-7-7-7-7-7-7-7-|
|---L----------------|--------------------------------------------------|
|---L----------------|--5-5-5-5-5-5-5-5-5-5-5-5-5-5-5-5-5-5-5-5-5-5-5-5-|
|---L----------------|--------------------------------------------------|


   |-3-| |-3-| |-3-| |-3-| |-3-| |-3-| |-3-| |-3-|  
   S S S S S S S S S S S S S S S S S S S S S S S S  
|--------------------------------------------------|
|--------------------------------------------------|
|--7-7-7-7-7-7-7-7-7-7-7-7-7-7-7-7-7-7-7-7-7-7-7-7-|
|--------------------------------------------------|
|--5-5-5-5-5-5-5-5-5-5-5-5-5-5-5-5-5-5-5-5-5-5-5-5-|
|--------------------------------------------------|


   |-3-| |-3-| |-3-| |-3-| |-3-| |-3-| |-3-| |-3-|  
   S S S S S S S S S S S S S S S S S S S S S S S S  
|--------------------------------------------------|
|--------------------------------------------------|
|--5-5-5-5-5-5-5-5-5-5-5-5-5-5-5-5-5-5-5-5-5-5-5-5-|
|--------------------------------------------------|
|--3-3-3-3-3-3-3-3-3-3-3-3-3-3-3-3-3-3-3-3-3-3-3-3-|
|--------------------------------------------------|


   |-3-| |-3-| |-3-| |-3-| |-3-| |-3-| |-3-| |-3-|  
   S S S S S S S S S S S S S S S S S S S S S S S S  
|--------------------------------------------------|
|--------------------------------------------------|
|--5-5-5-5-5-5-5-5-5-5-5-5-5-5-5-5-5-5-5-5-5-5-5-5-|
|--------------------------------------------------|
|--3-3-3-3-3-3-3-3-3-3-3-3-3-3-3-3-3-3-3-3-3-3-3-3-|
|--------------------------------------------------|


    E   E   E   E   E   E   E   E      E   E   E   E   E   E   E   E   
|----------------------------------|----------------------------------|
|--10--10--10--10--13--10--10--13--|--10--10--13--10--10--13--10--13--|
|--10--10--10--10--10--10--10--13--|--10--10--13--10--10--13--10--13--|
|----------------------------------|----------------------------------|
|----------------------------------|----------------------------------|
|----------------------------------|----------------------------------|

 
    E   E   E   E   E   E   E   E      E   E   E   E   E   Q.       
|----------------------------------|-------------------------------|
|--13--10--10--10--13--10--10--13--|---9---9---9---9---9---9/------|
|--13--10--10--10--13--10--10--13--|--10--10--10--10--10--10/------|
|----------------------------------|-------------------------------|
|----------------------------------|-------------------------------|
|----------------------------------|-------------------------------|


   E  E  E  E  E  E  E  E     E  E  E  E  E  E  E  E   
|--------------------------|--------------------------|
|--------------------------|--------------------------|
|--------------------------|--0--2--2--2--2--2--2--2--|
|--3--3--3--3--3--3--3--3--|--0--0--0--0--0--0--0--0--|
|--3--3--3--3--3--3--3--3--|--3--0--0--0--0--0--0--0--|
|--3--3--3--3--3--3--3--3--|--0--0--0--0--0--0--0--0--|


    E   E   E   E   E   E   E   E      E   E   E   E  E  E  E  E   
|----------------------------------|------------------------------|
|----------------------------------|------------------------------|
|----------------------------------|------------------------------|
|--13--13--13--13--13--13--13--13--|--15--15--15--15--1--0--1--2--|
|--11--11--11--11--11--11--11--11--|--13--13--13--13--1--0--1--2--|
|--11--11--11--11--11--11--11--11--|--13--13--13--13--1--0--1--2--|


    E  E  E  E  E  E  E  E     E  E  E  E  E  E  E  E   
|--------------------------|--------------------------|
|--------------------------|--------------------------|
|--------------------------|--0--2--2--2--2--2--2--2--|
|--3--3--3--3--3--3--3--3--|--0--0--0--0--0--0--0--0--|
|--3--3--3--3--3--3--3--3--|--3--0--0--0--0--0--0--0--|
|--3--3--3--3--3--3--3--3--|--0--0--0--0--0--0--0--0--|


    E   E  E   E  E   E  E   E      E   E   E   E  E  E  E  E   
|-------------------------------|------------------------------|
|-------------------------------|------------------------------|
|-------------------------------|------------------------------|
|--13--13-----13-----13-----13--|--15--15--15--15--1--0--1--2--|
|--11--11-----11-----11-----11--|--13--13--13--13--1--0--1--2--|
|--11--11-----11-----11-----11--|--13--13--13--13--1--0--1--2--|


   E  E  E  E  E  E  E  E     E  E  E  E  E  E  E  E   
|--------------------------|--------------------------|
|--------------------------|--------------------------|
|--------------------------|--0--2--2--2--2--2--2--2--|
|--3--3--3--3--3--3--3--3--|--0--0--0--0--0--0--0--0--|
|--3--3--3--3--3--3--3--3--|--3--0--0--0--0--0--0--0--|
|--3--3--3--3--3--3--3--3--|--0--0--0--0--0--0--0--0--|


    E   E   E   E   E   E   E   E      E   E   E   E  E  E  E  E   
|----------------------------------|------------------------------|
|----------------------------------|------------------------------|
|----------------------------------|------------------------------|
|--13--13--13--13--13--13--13--13--|--15--15--15--15--1--0--1--2--|
|--11--11--11--11--11--11--11--11--|--13--13--13--13--1--0--1--2--|
|--11--11--11--11--11--11--11--11--|--13--13--13--13--1--0--1--2--|


   E  E  E  E  E  E  E  E     E  E  E  E  E  E  E  E   
|--------------------------|--------------------------|
|--------------------------|--------------------------|
|--------------------------|--0--2--2--2--2--2--2--2--|
|--3--3--3--3--3--3--3--3--|--0--0--0--0--0--0--0--0--|
|--3--3--3--3--3--3--3--3--|--3--0--0--0--0--0--0--0--|
|--3--3--3--3--3--3--3--3--|--0--0--0--0--0--0--0--0--|


    E   E  E   E  E   E  E   E      E   E   E   E  E  E  E  E   
|-------------------------------|------------------------------|
|-------------------------------|------------------------------|
|-------------------------------|------------------------------|
|--13--13-----13-----13-----13--|--15--15--15--15--1--0--1--2--|
|--11--11-----11-----11-----11--|--13--13--13--13--1--0--1--2--|
|--11--11-----11-----11-----11--|--13--13--13--13--1--0--1--2--|


   Q    E  E.   S  S S  S E.     Q    E  E.  E  S Q     
|-----------------------------|------------------------|
|-----------------------------|------------------------|
|-----------------------------|-------------------8----|
|--0-------0------------------|--0-------0---0----7----|
|--0-------0-----------10-9---|--0-------0---0----6----|
|--0-------0---12-10-0--------|--0-------0---0---------|


                                 |----3----|                                     
   Q    E  E.   S  S S  S E.     Q    Q    Q    E.  E  E  S    W                 
|-----------------------------|-----------------------------|-------------------|
|-----------------------------|-----------------------------|-------------------|
|-----------------------------|-----------------------------|-------------------|
|--0-------0------------------|-----------------------------|-------------------|
|--0-------0-----------10-9---|--0----3----7----6---5--3--0-|--L----------------|
|--0-------0---12-10-0--------|--0----3----7----6---5--3--0-|--L----------------|


   W                   W                   W                   W                 
|-------------------|-------------------|-------------------|-------------------|
|-------------------|-------------------|-------------------|-------------------|
|-------------------|-------------------|-------------------|-------------------|
|-------------------|-------------------|-------------------|-------------------|
|--L----------------|--L----------------|--L----------------|--L----------------|
|--L----------------|--L----------------|--L----------------|--L----------------|


   W                   W                                     
|-------------------|-------------------|-------------------|
|-------------------|-------------------|-------------------|
|-------------------|-------------------|-------------------|
|-------------------|-------------------|-------------------|
|--L----------------|--L----------------|-------------------|
|--L----------------|--L----------------|-------------------|


|-------------------||
|-------------------||
|-------------------||
|-------------------||
|-------------------||
|-------------------||














Rhythm Guitar:

                                                      Q    Q    Q    Q     
D#||-------|-------|-------|-------|-------|-------|----------------------|
A#||-------|-------|-------|-------|-------|-------|----------------------|
F#||-------|-------|-------|-------|-------|-------|----------------------|
C#||-------|-------|-------|-------|-------|-------|----------------------|
G#||-------|-------|-------|-------|-------|-------|----------------------|
C#||-------|-------|-------|-------|-------|-------|----------------------|


    Q    E  E.   S  S S  S E.     Q    E  E.  E  S Q     
|------------------------------|------------------------|
|------------------------------|------------------------|
|*-----------------------------|-------------------8----|
|*--0-------0------------------|--0-------0---0----7----|
|---0-------0-----------10-9---|--0-------0---0----6----|
|---0-------0---12-10-0--------|--0-------0---0---------|


   Q    E  E.   S  S S  S E.     Q    E  E.  E  S Q       
|-----------------------------|-------------------------||
|-----------------------------|-------------------------||
|-----------------------------|--------------8----8----*||
|--0-------0------------------|--0-------0---7----7----*||
|--0-------0-----------10-9---|--0-------0---6----6-----||
|--0-------0---12-10-0--------|--0-------0--------------||


                       |-3-|                                          
   Q    E  E.  E  S E  S S S    W                   W                 
|----------------------------|-------------------|-------------------|
|----------------------3-----|-------------------|-------------------|
|--------------8----8----2---|-------------------|-------------------|
|--0-------0---7----7------0-|--0----------------|--L----------------|
|--0-------0---6----6--------|--0----------------|--L----------------|
|--0-------0-----------------|--0----------------|--L----------------|


   W                   W                   W                   W                 
|-------------------|-------------------|-------------------|-------------------|
|-------------------|-------------------|-------------------|-------------------|
|-------------------|-------------------|-------------------|-------------------|
|--L----------------|--L----------------|--0----------------|--L----------------|
|--L----------------|--L----------------|--0----------------|--L----------------|
|--L----------------|--L----------------|--0----------------|--L----------------|


   W                   W                   W                   W                 
|-------------------|-------------------|-------------------|-------------------|
|-------------------|-------------------|-------------------|-------------------|
|-------------------|-------------------|-------------------|-------------------|
|--L----------------|--L----------------|--0----------------|--L----------------|
|--L----------------|--L----------------|--0----------------|--L----------------|
|--L----------------|--L----------------|--0----------------|--L----------------|


                                           PM PM    PM PM PM    PM  
   W                   W                   E  E  E  E  E  E  E  E   
|-------------------|-------------------|--------------------------|
|-------------------|-------------------|--------------------------|
|-------------------|-------------------|--------------------------|
|--L----------------|--L----------------|--------------------------|
|--L----------------|--L----------------|--0--0-----0--0--0-----0--|
|--L----------------|--L----------------|--0--0-----0--0--0-----0--|


   PM PM    PM PM PM    PM    PM PM    PM PM PM    PM  
   E  E  E  E  E  E  E  E     E  E  E  E  E  E  E  E   
|--------------------------|--------------------------|
|--------------------------|--------------------------|
|--------------------------|--------------------------|
|--------------------------|--------------------------|
|--3--3-----3--3--3-----3--|--8--8-----8--8--8-----8--|
|--3--3-----3--3--3-----3--|--8--8-----8--8--8-----8--|


   PM PM    PM PM PM    PM                                                
   E  E  E  E  E  E  E  E     Q    Q    Q    Q       Q    Q    Q    Q     
|--------------------------|----------------------|----------------------|
|--------------------------|----------------------|----------------------|
|--------------------------|-------7---------7----|-------7---------7----|
|--------------------------|----------------------|----------------------|
|--5--5-----5--8--8-----8--|-------5---------5----|-------5---------5----|
|--5--5-----5--8--8-----8--|----------------------|----------------------|


   Q    Q    Q    Q       E  E  E  E  E  E  E  E     E  E  E  E  E  E  E  E   
|----------------------|--------------------------|--------------------------|
|----------------------|--------------------------|--------------------------|
|-------7---------7----|--------------------------|--------------------------|
|----------------------|--------------------------|--3--3--3--3--3--3--3--3--|
|-------5---------5----|--5--5--5--5--8--8--8--8--|--3--3--3--3--3--3--3--3--|
|----------------------|--5--5--5--5--8--8--8--8--|--3--3--3--3--3--3--3--3--|


   E  E  E  E  E  E  E  E      E   E   E   E   E   E   E   E   
|--------------------------|----------------------------------|
|--------------------------|----------------------------------|
|--0--2--2--2--2--2--2--2--|----------------------------------|
|--0--0--0--0--0--0--0--0--|--13--13--13--13--13--13--13--13--|
|--3--0--0--0--0--0--0--0--|--11--11--11--11--11--11--11--11--|
|--0--0--0--0--0--0--0--0--|--11--11--11--11--11--11--11--11--|


    E   E   E   E  E  E  E  E     E  E  E  E  E  E  E  E   
|------------------------------|--------------------------|
|------------------------------|--------------------------|
|------------------------------|--------------------------|
|--15--15--15--15--1--0--1--2--|--3--3--3--3--3--3--3--3--|
|--13--13--13--13--1--0--1--2--|--3--3--3--3--3--3--3--3--|
|--13--13--13--13--1--0--1--2--|--3--3--3--3--3--3--3--3--|


   E  E  E  E  E  E  E  E      E   E  E   E  E   E  E   E   
|--------------------------|-------------------------------|
|--------------------------|-------------------------------|
|--0--2--2--2--2--2--2--2--|-------------------------------|
|--0--0--0--0--0--0--0--0--|--13--13-----13-----13-----13--|
|--3--0--0--0--0--0--0--0--|--11--11-----11-----11-----11--|
|--0--0--0--0--0--0--0--0--|--11--11-----11-----11-----11--|


    E   E   E   E  E  E  E  E     Q    E  E.   S  S S  S E.   
|------------------------------|-----------------------------|
|------------------------------|-----------------------------|
|------------------------------|-----------------------------|
|--15--15--15--15--1--0--1--2--|--0-------0------------------|
|--13--13--13--13--1--0--1--2--|--0-------0-----------10-9---|
|--13--13--13--13--1--0--1--2--|--0-------0---12-10-0--------|


   Q    E  E.  E  S Q       Q    E  E.   S  S S  S E.   
|------------------------|-----------------------------|
|------------------------|-----------------------------|
|-------------------8----|-----------------------------|
|--0-------0---0----7----|--0-------0------------------|
|--0-------0---0----6----|--0-------0-----------10-9---|
|--0-------0---0---------|--0-------0---12-10-0--------|


                      |-3-|                                          
   Q    E  E.  Q    S S S S    W                   W                 
|---------------------------|-------------------|-------------------|
|---------------------3-----|-------------------|-------------------|
|-----------------------2---|-------------------|-------------------|
|--0-------0--------------0-|--0----------------|--L----------------|
|--0-------0----------------|--0----------------|--L----------------|
|--0-------0----------------|--0----------------|--L----------------|


   W                   W                   W                   W                 
|-------------------|-------------------|-------------------|-------------------|
|-------------------|-------------------|-------------------|-------------------|
|-------------------|-------------------|-------------------|-------------------|
|--L----------------|--L----------------|--0----------------|--L----------------|
|--L----------------|--L----------------|--0----------------|--L----------------|
|--L----------------|--L----------------|--0----------------|--L----------------|


                                           PM PM    PM PM PM    PM  
   W                   W                   E  E  E  E  E  E  E  E   
|-------------------|-------------------|--------------------------|
|-------------------|-------------------|--------------------------|
|-------------------|-------------------|--------------------------|
|--L----------------|--L----------------|--------------------------|
|--L----------------|--L----------------|--0--0-----0--0--0-----0--|
|--L----------------|--L----------------|--0--0-----0--0--0-----0--|


   PM PM    PM PM PM    PM    PM PM    PM PM PM    PM  
   E  E  E  E  E  E  E  E     E  E  E  E  E  E  E  E   
|--------------------------|--------------------------|
|--------------------------|--------------------------|
|--------------------------|--------------------------|
|--------------------------|--------------------------|
|--3--3-----3--3--3-----3--|--8--8-----8--8--8-----8--|
|--3--3-----3--3--3-----3--|--8--8-----8--8--8-----8--|


   PM PM    PM PM PM    PM                             
   E  E  E  E  E  E  E  E     E  E  E  E  E  E  E  E   
|--------------------------|--------------------------|
|--------------------------|--------------------------|
|--------------------------|--------------------------|
|--------------------------|--------------------------|
|--5--5-----5--8--8-----8--|--0--0-----0--0--0-----0--|
|--5--5-----5--8--8-----8--|--0--0-----0--0--0-----0--|


   E  E  E  E  E  E  E  E     E  E  E  E  E  E  E  E   
|--------------------------|--------------------------|
|--------------------------|--------------------------|
|--------------------------|--------------------------|
|--------------------------|--------------------------|
|--3--3-----3--3--3-----3--|--8--8-----8--8--8-----8--|
|--3--3-----3--3--3-----3--|--8--8-----8--8--8-----8--|


   E  E  E  E  E  E  E  E     E  E  E  E  E  E  E  E   
|--------------------------|--------------------------|
|--------------------------|--------------------------|
|--------------------------|--------------------------|
|--------------------------|--3--3--3--3--3--3--3--3--|
|--5--5--5--5--8--8--8--8--|--3--3--3--3--3--3--3--3--|
|--5--5--5--5--8--8--8--8--|--3--3--3--3--3--3--3--3--|


   E  E  E  E  E  E  E  E      E   E   E   E   E   E   E   E   
|--------------------------|----------------------------------|
|--------------------------|----------------------------------|
|--0--2--2--2--2--2--2--2--|----------------------------------|
|--0--0--0--0--0--0--0--0--|--13--13--13--13--13--13--13--13--|
|--3--0--0--0--0--0--0--0--|--11--11--11--11--11--11--11--11--|
|--0--0--0--0--0--0--0--0--|--11--11--11--11--11--11--11--11--|


    E   E   E   E  E  E  E  E     E  E  E  E  E  E  E  E   
|------------------------------|--------------------------|
|------------------------------|--------------------------|
|------------------------------|--------------------------|
|--15--15--15--15--1--0--1--2--|--3--3--3--3--3--3--3--3--|
|--13--13--13--13--1--0--1--2--|--3--3--3--3--3--3--3--3--|
|--13--13--13--13--1--0--1--2--|--3--3--3--3--3--3--3--3--|


   E  E  E  E  E  E  E  E      E   E  E   E  E   E  E   E   
|--------------------------|-------------------------------|
|--------------------------|-------------------------------|
|--0--2--2--2--2--2--2--2--|-------------------------------|
|--0--0--0--0--0--0--0--0--|--13--13-----13-----13-----13--|
|--3--0--0--0--0--0--0--0--|--11--11-----11-----11-----11--|
|--0--0--0--0--0--0--0--0--|--11--11-----11-----11-----11--|


    E   E   E   E  E  E  E  E     W                   W                 
|------------------------------|-------------------|-------------------|
|------------------------------|-------------------|-------------------|
|------------------------------|-------------------|-------------------|
|--15--15--15--15--1--0--1--2--|--0----------------|--L----------------|
|--13--13--13--13--1--0--1--2--|--0----------------|--L----------------|
|--13--13--13--13--1--0--1--2--|--0----------------|--L----------------|


   W                    W                   E  E  E  E  E  E  E  E   
|-------------------|--------------------|--------------------------|
|-------------------|--------------------|--------------------------|
|-------------------|--------------------|--------------------------|
|--L----------------|---L----------------|--0--0-----0--0--0-----0--|
|--L----------------|---L----------------|--0--0-----0--0--0-----0--|
|--L----------------|---L----------------|--0--0-----0--0--0-----0--|


   E  E  E  E  E  E  E  E     E  E  E  E  E  E  E  E   
|--------------------------|--------------------------|
|--------------------------|--------------------------|
|--------------------------|--------------------------|
|--0--0-----0--1--0--1--3--|--0--0-----0--0--0-----0--|
|--0--0-----0--1--0--1--3--|--0--0-----0--0--0-----0--|
|--0--0-----0--1--0--1--3--|--0--0-----0--0--0-----0--|


   E  E  E  E  E  E  E  E     E  E  E  E  E  E  E  E   
|--------------------------|--------------------------|
|--------------------------|--------------------------|
|--------------------------|--------------------------|
|-----0--0--0--1--0--1--3--|--0--0-----0--0--0-----0--|
|-----0--0--0--1--0--1--3--|--0--0-----0--0--0-----0--|
|-----0--0--0--1--0--1--3--|--0--0-----0--0--0-----0--|


   E  E  E  E  E  E  E  E     E  E  E  E  E  E  E  E   
|--------------------------|--------------------------|
|--------------------------|--------------------------|
|--------------------------|--------------------------|
|--0--0-----0--1--0--1--3--|--0--0-----0--0--0-----0--|
|--0--0-----0--1--0--1--3--|--0--0-----0--0--0-----0--|
|--0--0-----0--1--0--1--3--|--0--0-----0--0--0-----0--|


   E  E  E  E  E  E  E  E     E  E  E  E  E  E  E  E   
|--------------------------|--------------------------|
|--------------------------|--------------------------|
|--------------------------|--------------------------|
|-----0--0--0--1--0--1--3--|--3--3--3--3--3--3--3--3--|
|-----0--0--0--1--0--1--3--|--3--3--3--3--3--3--3--3--|
|-----0--0--0--1--0--1--3--|--3--3--3--3--3--3--3--3--|


   E  E  E  E  E  E  E  E      E   E   E   E   E   E   E   E   
|--------------------------|----------------------------------|
|--------------------------|----------------------------------|
|--0--2--2--2--2--2--2--2--|----------------------------------|
|--0--0--0--0--0--0--0--0--|--13--13--13--13--13--13--13--13--|
|--3--0--0--0--0--0--0--0--|--11--11--11--11--11--11--11--11--|
|-|0--0--0--0--0--0--0--0--|--11--11--11--11--11--11--11--11--|


    E   E   E   E  E  E  E  E     E  E  E  E  E  E  E  E   
|------------------------------|--------------------------|
|------------------------------|--------------------------|
|------------------------------|--------------------------|
|--15--15--15--15--1--0--1--2--|--3--3--3--3--3--3--3--3--|
|--13--13--13--13--1--0--1--2--|--3--3--3--3--3--3--3--3--|
|--13--13--13--13--1--0--1--2--|--3--3--3--3--3--3--3--3--|


   E  E  E  E  E  E  E  E      E   E  E   E  E   E  E   E   
|--------------------------|-------------------------------|
|--------------------------|-------------------------------|
|--0--2--2--2--2--2--2--2--|-------------------------------|
|--0--0--0--0--0--0--0--0--|--13--13-----13-----13-----13--|
|--3--0--0--0--0--0--0--0--|--11--11-----11-----11-----11--|
|--0--0--0--0--0--0--0--0--|--11--11-----11-----11-----11--|


    E   E   E   E  E  E  E  E     E  E  E  E  E  E  E  E   
|------------------------------|--------------------------|
|------------------------------|--------------------------|
|------------------------------|--------------------------|
|--15--15--15--15--1--0--1--2--|--3--3--3--3--3--3--3--3--|
|--13--13--13--13--1--0--1--2--|--3--3--3--3--3--3--3--3--|
|--13--13--13--13--1--0--1--2--|--3--3--3--3--3--3--3--3--|


   E  E  E  E  E  E  E  E      E   E   E   E   E   E   E   E   
|--------------------------|----------------------------------|
|--------------------------|----------------------------------|
|--0--2--2--2--2--2--2--2--|----------------------------------|
|--0--0--0--0--0--0--0--0--|--13--13--13--13--13--13--13--13--|
|--3--0--0--0--0--0--0--0--|--11--11--11--11--11--11--11--11--|
|--0--0--0--0--0--0--0--0--|--11--11--11--11--11--11--11--11--|


    E   E   E   E  E  E  E  E     E  E  E  E  E  E  E  E   
|------------------------------|--------------------------|
|------------------------------|--------------------------|
|------------------------------|--------------------------|
|--15--15--15--15--1--0--1--2--|--3--3--3--3--3--3--3--3--|
|--13--13--13--13--1--0--1--2--|--3--3--3--3--3--3--3--3--|
|--13--13--13--13--1--0--1--2--|--3--3--3--3--3--3--3--3--|


   E  E  E  E  E  E  E  E      E   E  E   E  E   E  E   E   
|--------------------------|-------------------------------|
|--------------------------|-------------------------------|
|--0--2--2--2--2--2--2--2--|-------------------------------|
|--0--0--0--0--0--0--0--0--|--13--13-----13-----13-----13--|
|--3--0--0--0--0--0--0--0--|--11--11-----11-----11-----11--|
|--0--0--0--0--0--0--0--0--|--11--11-----11-----11-----11--|


    E   E   E   E  E  E  E  E     Q    E  E.   S  S S  S E.   
|------------------------------|-----------------------------|
|------------------------------|-----------------------------|
|------------------------------|-----------------------------|
|--15--15--15--15--1--0--1--2--|--0-------0------------------|
|--13--13--13--13--1--0--1--2--|--0-------0-----------10-9---|
|--13--13--13--13--1--0--1--2--|--0-------0---12-10-0--------|


   Q    E  E.  E  S Q       Q    E  E.   S  S S  S E.   
|------------------------|-----------------------------|
|------------------------|-----------------------------|
|-------------------8----|-----------------------------|
|--0-------0---0----7----|--0-------0------------------|
|--0-------0---0----6----|--0-------0-----------10-9---|
|--0-------0---0---------|--0-------0---12-10-0--------|


   |----3----|                                                         
   Q    Q    Q    E.  E  E  S    W                   W                 
|-----------------------------|-------------------|-------------------|
|-----------------------------|-------------------|-------------------|
|-----------------------------|-------------------|-------------------|
|-----------------------------|-------------------|-------------------|
|--0----3----7----6---5--3--0-|--L----------------|--L----------------|
|--0----3----7----6---5--3--0-|--L----------------|--L----------------|


   W                   W                   W                   W                 
|-------------------|-------------------|-------------------|-------------------|
|-------------------|-------------------|-------------------|-------------------|
|-------------------|-------------------|-------------------|-------------------|
|-------------------|-------------------|-------------------|-------------------|
|--L----------------|--L----------------|--L----------------|--L----------------|
|--L----------------|--L----------------|--L----------------|--L----------------|


   W                                                          
|-------------------|-------------------|-------------------||
|-------------------|-------------------|-------------------||
|-------------------|-------------------|-------------------||
|-------------------|-------------------|-------------------||
|--L----------------|-------------------|-------------------||
|--L----------------|-------------------|-------------------||




Duration Legend
---------------
W - whole
H - half
Q - quarter
E - 8th
S - 16th
T - 32nd
X - 64th
. - note dotted
|-n-|  - n-tuplets


Tablature Legend
----------------
L - tied note
x - dead note
g - grace note
(n) - ghost note
> - accentuded note
NH - natural harmonic
AH - artificial harmonic
TH - tapped harmonic
SH - semi harmonic
PH - pitch harmonic
h - hammer on
p - pull off
b - bend
br - bendRelease
pb - preBend
pbr - preBendRelease
brb - bendReleaseBend
\n/ - tremolo bar dip
\n - tremolo bar dive
-/n - tremolo bar Release up
/n\ - tremolo bar inverted dip
/n - tremolo bar return
-\n - tremolo bar Release down
S - shift slide
s - legato slide
/ -  slide into from below or out of upwards
\ -  slide into from above or out of downwards
~ - vibrato
W - wide vibrato
tr - trill
TP - tremolo picking
T - tapping
S - slap
P - pop
< - fade in
^ - brush up
v - brush down
comments
We did not receive enough feedback on this tab! Please rate:
print report bad tab
1 2 3 4 5
I want to post or [tab]
guest
You may want to rate the tab now too:
select rating
Please do not post tabs as comments. Select "correction" instead!