Oops, an error
Loading. Please wait.

Breakdown Tab

ver5
ver5

Intro

Whole song

Interactive

More versions @911Tabs.com
864 views 1 this week
no commentswrite comment
1 2 3 4 5
worth learning
x 2
Autoscroll
+/-
esc
set tempo
stop
Contributor
NEW! There's an official Ultimate Guitar app which is ideal
for learning songs when you're away from computer. Get the app
WARNING: You are trying to view
                                    content from Ultimate-Guitar.com
                                    in an unauthorized application,
                                    which is prohibited.

                                    Please use an official Ultimate
                                    Guitar Tabs application for iPhone,
                                    iPad or Android to access legitimate
                                    chords, guitar, bass, and drum tabs
                                    from Ultimate-Guitar.com database.

                                    Type "ultimate guitar tabs" in Apple
                                    App Store's or Android Market's
                                    search to find the application.
-------------------------------------------------------------------------------
                             Breakdown - Breaking Benjamin
-------------------------------------------------------------------------------
Tabbed by: metalmonkey147
Email:

Tuning: Drop C

|---------------------------------------------------------------------------|
|---------------------------------------------------------------------------|
|-----------------------------------------------4---------------------------|
|---1-----1------------6p5-------1----2---2-----2---------------------------|
|---1-----1-----6p5p0------------1----2---2-----2---------------------------|
|---1-----1----------------------1----2---2---------------------------------|

|---------------------------------------------------------------------------|
|---------------------------------------------------------------------------|
|------------------------------------------4----4---------------------------|
|---1-----1------------6p5-------1----2----2----2------1--------------------|
|---1-----1-----6p5p0------------1----2----2----2------1--------------------|
|---1-----1----------------------1----2----------------1--------------------|

|---------7p6---7p6-------------------7p6----7p6----------------------------|
|----------------------4-----------------------------4----------------------|
|---------------------------------------------------------------------------|
|---------------------------------------------------------------------------|
|---------------------------------------------------------------------------|
|---------------------------------------------------------------------------|

|---------7p6---7p6-------------------7p6----7p6----------------------------|
|----------------------4-----------------------------4----------------------|
|---------------------------------------------------------------------------|
|---------------------------------------------------------------------------|
|---------------------------------------------------------------------------|
|---------------------------------------------------------------------------|

|---------7p6---7p6-------------------7p6----7p6----------------------------|
|----------------------4----------------------------------------------------|
|---------------------------------------------------------------------------|
|---------------------------------------------------------------------------|
|---------------------------------------------------------------------------|
|---------------------------------------------------------------------------|

|---------------------------------------------------------------------------|
|---------------------------------------------------------------------------|
|---------------------------------------------------------------------------|
|----------1-----------1-----------4-----------4----------------------------|
|----------1-----------1-----------4-----------4----------------------------|
|----1--1--1--1--1--1--1--1--4--4--4--4--4--4--4--4-------------------------|
     .  .  .  .  .  .  .  .  .  .  .  .  .  .  .  .
|---------------------------------------------------------------------------|
|---------------------------------------------------------------------------|
|---------------------------------------------------------------------------|
|---------9-----------9-----------6-----------8-----------------------------|
|---------9-----------9-----------6-----------8-----------------------------|
|---9--9--9--9--9--9--9--9--6--6--6--6--8--8--8--8--------------------------|
    .  .  .  .  .  .  .  .  .  .  .  .  .  .  .  .
|---------------------------------------------------------------------------|
|---------------------------------------------------------------------------|
|---------------------------------------------------------------------------|
|----------1-----------1----------------------------------------------------|
|----1--1-----1--1--1-----1--4--4--6--4--4--4--6--4-------------------------|
|----1--1-----1--1--1-----1--4--4-----4--4--4-----4-------------------------|
     .  .     .  .  .     .  .  .     .  .  .     .
|---------------------------------------------------------------------------|
|---------------------------------------------------------------------------|
|---------------------------------------------------------------------------|
|----------------------------6--6--6--6--9--9--9--9-------------------------|
|----9--9--6--9--9--9--6--9--6--6--6--6--9--9--9--9-------------------------|
|----9--9-----9--9--9-----9--6--6--6--6--9--9--9--9-------------------------|
     .  .     .  .  .     .
|---------------------------------------------------------------------------|
|---------------------------------------------------------------------------|
|---------------------------------4-4-4-4-4-4-4-4-4-4-4---------------------|
|---4-4-4-4-4-4-4-1-1-1-1-1-1-1-1-2-2-2-2-2-2-2-2-2-2-2---1-2-3-------------|
|---4-4-4-4-4-4-4-1-1-1-1-1-1-1-1-2-2-2-2-2-2-2-2-2-2-2---1-2-3-------------|
|---4-4-4-4-4-4-4-1-1-1-1-1-1-1-1-------------------------1-2-3-------------|

|---------------------------------------------------------------------------|
|---------------------------------------------------------------------------|
|---------------------------------------------------------------------------|
|---4-4-4-4-4-4-4-1-1-1-1-1-1-1-1-0---0--0--0--2---2-2----1-2-3-------------|
|---4-4-4-4-4-4-4-1-1-1-1-1-1-1-1-0---0--0--0--2---2-2----1-2-3-------------|
|---4-4-4-4-4-4-4-1-1-1-1-1-1-1-1-0---0--0--0--2---2-2----1-2-3-------------|

|---------------------------------------------------------------------------|
|---------------------------------------------------------------------------|
|-----------------------------------------------4---------------------------|
|---1-----1------------6p5-------1----2---2-----2---------------------------|
|---1-----1-----6p5p0------------1----2---2-----2---------------------------|
|---1-----1----------------------1----2---2---------------------------------|

|---------------------------------------------------------------------------|
|-----------------------------------------------------4---------------------|
|-----------------------------------------------------3---------------------|
|---1-----1------------6p5-------1----2---------------1---------------------|
|---1-----1-----6p5p0------------1----2---------------1---------------------|
|---1-----1----------------------1----2---------------1---------------------|
                                            (sweep from high to low)

|---------7p6---7p6-------------------7p6----7p6----------------------------|
|----------------------4-----------------------------4----------------------|
|---------------------------------------------------------------------------|
|---------------------------------------------------------------------------|
|---------------------------------------------------------------------------|
|---------------------------------------------------------------------------|

|---------7p6---7p6-------------------7p6----7p6----------------------------|
|----------------------4-----------------------------4----------------------|
|---------------------------------------------------------------------------|
|---------------------------------------------------------------------------|
|---------------------------------------------------------------------------|
|---------------------------------------------------------------------------|

|---------7p6---7p6-------------------7p6----7p6----------------------------|
|----------------------4----------------------------------------------------|
|---------------------------------------------------------------------------|
|---------------------------------------------------------------------------|
|---------------------------------------------------------------------------|
|---------------------------------------------------------------------------|

|---------------------------------------------------------------------------|
|---------------------------------------------------------------------------|
|---------------------------------------------------------------------------|
|----------1-----------1-----------4-----------4----------------------------|
|----------1-----------1-----------4-----------4----------------------------|
|----1--1--1--1--1--1--1--1--4--4--4--4--4--4--4--4-------------------------|
     .  .  .  .  .  .  .  .  .  .  .  .  .  .  .  .
|---------------------------------------------------------------------------|
|---------------------------------------------------------------------------|
|---------------------------------------------------------------------------|
|---------9-----------9-----------6-----------8-----------------------------|
|---------9-----------9-----------6-----------8-----------------------------|
|---9--9--9--9--9--9--9--9--6--6--6--6--8--8--8--8--------------------------|
    .  .  .  .  .  .  .  .  .  .  .  .  .  .  .  .
|---------------------------------------------------------------------------|
|---------------------------------------------------------------------------|
|---------------------------------------------------------------------------|
|----1--1-----1--1--1-----1--4--4-----4--4--4-------------------------------|
|----1--1-----1--1--1-----1--4--4-----4--4--4-------------------------------|
|----1--1-----1--1--1-----1--4--4-----4--4--4-------------------------------|

|---------------------------------------------------------------------------|
|---------------------------------------------------------------------------|
|---------------------------------------------------------------------------|
|----4--9--9-----9--9--9-----9--6--6--6--6--9--9--9--9----------------------|
|----4--9--9-----9--9--9-----9--6--6--6--6--9--9--9--9----------------------|
|----4--9--9-----9--9--9-----9--6--6--6--6--9--9--9--9----------------------|

|---------------------------------------------------------------------------|
|---------------------------------------------------------------------------|
|---------------------------------4-4-4-4-4-4-4-4-4-4-4---------------------|
|---4-4-4-4-4-4-4-1-1-1-1-1-1-1-1-2-2-2-2-2-2-2-2-2-2-2---1-2-3-------------|
|---4-4-4-4-4-4-4-1-1-1-1-1-1-1-1-2-2-2-2-2-2-2-2-2-2-2---1-2-3-------------|
|---4-4-4-4-4-4-4-1-1-1-1-1-1-1-1-------------------------1-2-3-------------|

|---------------------------------------------------------------------------|
|---------------------------------------------------------------------------|
|---------------------------------------------------------------------------|
|---4-4-4-4-4-4-4-1-1-1-1-1-1-1-1-0---0--0--0--2---2-2----1-2-3-----1-------|
|---4-4-4-4-4-4-4-1-1-1-1-1-1-1-1-0---0--0--0--2---2-2----1-2-3-----1-------|
|---4-4-4-4-4-4-4-1-1-1-1-1-1-1-1-0---0--0--0--2---2-2----1-2-3-----1-------|
                                                                 (long hold)
|---------------------------------------------------------------------------|
|---------------------------------------------------------------------------|
|----------------------------13-----------------11--------------------------|
|---------------------------------------------------------------------------|
|----X\---------------------------------------------------------------------|
|----X\---------------------------------------------------------------------|
    (pick slide)             (shred these two notes)

|---------------------------------------------------------------------------|
|--------------------14----------14----------14----------14-----------------|
|----11--11--11--11------11--11------11--11------11--11------11--11---------|
|----13--13--13--13------13--13------13--13------13--13------13--13---------|
|---------------------------------------------------------------------------|
|---------------------------------------------------------------------------|

|---------------------------------------------------------------------------|
|----14---------------------------------------------------------------------|
|--------10--10--10--10--10--10--10--10--10--10--10-------------------------|
|--------11--11--11--11--11--11--11--11--11--11--11----11b------------------|
|---------------------------------------------------------------------------|
|---------------------------------------------------------------------------|

|---------------------------------------------------------------------------|
|---------------------------------------------------------------------------|
|---------------------------------4-4-4-4-4-4-4-4-4-4-4---------------------|
|---4-4-4-4-4-4-4-1-1-1-1-1-1-1-1-2-2-2-2-2-2-2-2-2-2-2---1-2-3-------------|
|---4-4-4-4-4-4-4-1-1-1-1-1-1-1-1-2-2-2-2-2-2-2-2-2-2-2---1-2-3-------------|
|---4-4-4-4-4-4-4-1-1-1-1-1-1-1-1-------------------------1-2-3-------------|

|---------------------------------------------------------------------------|
|---------------------------------------------------------------------------|
|---------------------------------------------------------------------------|
|---4-4-4-4-4-4-4-1-1-1-1-1-1-1-1-0---0--0--0--2---2-2----1-2-3-------------|
|---4-4-4-4-4-4-4-1-1-1-1-1-1-1-1-0---0--0--0--2---2-2----1-2-3-------------|
|---4-4-4-4-4-4-4-1-1-1-1-1-1-1-1-0---0--0--0--2---2-2----1-2-3-------------|

|---------------------------------------------------------------------------|
|---------------------------------------------------------------------------|
|---------------------------------4-4-4-4-4-4-4-4-4-4-4---------------------|
|---4-4-4-4-4-4-4-1-1-1-1-1-1-1-1-2-2-2-2-2-2-2-2-2-2-2---1-2-3-------------|
|---4-4-4-4-4-4-4-1-1-1-1-1-1-1-1-2-2-2-2-2-2-2-2-2-2-2---1-2-3-------------|
|---4-4-4-4-4-4-4-1-1-1-1-1-1-1-1-------------------------1-2-3-------------|

|---------------------------------------------------------------------------|
|---------------------------------------------------------------------------|
|---------------------------------------------------------------------------|
|---4-4-4-4-4-4-4-1-1-1-1-1-1-1-1-0---0--0--0--2---2-2----1-2-3-------------|
|---4-4-4-4-4-4-4-1-1-1-1-1-1-1-1-0---0--0--0--2---2-2----1-2-3-------------|
|---4-4-4-4-4-4-4-1-1-1-1-1-1-1-1-0---0--0--0--2---2-2----1-2-3-------------|


|---------------------------------------------------------------------------|
|---------------------------------------------------------------------------|
|-----------------------------------------------4---------------------------|
|---1-----1------------6p5-------1----2---2-----2---------------------------|
|---1-----1-----6p5p0------------1----2---2-----2---------------------------|
|---1-----1----------------------1----2---2---------------------------------|

|---------------------------------------------------------------------------|
|---------------------------------------------------------------------------|
|-------------------------------8----11-------------------------------------|
|---1-----1------------6p5------8----11----8----7----6---4---1--------------|
|---1-----1-----6p5p0-----------6----9-----8----7----6---4---1--------------|
|---1-----1--------------------------------8----7----6---4---1--------------|


************************************

| .   palm mute
| /   slide up
| \   slide down
| h   hammer-on
| p   pull-off
| ~   vibrato
| *   harmonic
| x   Mute note
| b   Bend
| pb  Pre-bend
| br  Bend release
| pbr Pre-bend release
| brb Bend release bend

************************************
comments
We did not receive enough feedback on this tab! Please rate:
print report bad tab
1 2 3 4 5
I want to post or [tab]
guest
You may want to rate the tab now too:
select rating
Please do not post tabs as comments. Select "correction" instead!