Oops, an error
Loading. Please wait.

Breath Bass Tab

ver4
ver4

Whole song

More versions @911Tabs.com
1,623 views 12 this week
no commentswrite comment
1 2 3 4 5
please rate
Autoscroll
+/-
esc
set tempo
stop
Contributor
Tuning
C G C F A D
WARNING: You are trying to view
                                    content from Ultimate-Guitar.com
                                    in an unauthorized application,
                                    which is prohibited.

                                    Please use an official Ultimate
                                    Guitar Tabs application for iPhone,
                                    iPad or Android to access legitimate
                                    chords, guitar, bass, and drum tabs
                                    from Ultimate-Guitar.com database.

                                    Type "ultimate guitar tabs" in Apple
                                    App Store's or Android Market's
                                    search to find the application.
Intro
0:05
   e+ e+ e+ e+ q    e+ e+ e+ e+ q    s s s s s s e+ e+ q
F|----------------|----------------|----------------------|
C|----------------|----------------|----------------------|
G|----------------|----------------|----------------------|
C|-8--8--8--8--8--|-7--7--7--7--7--|-5-5-5-5-x-x-5--5--5--|

   s s s s s s e+ e+ q    e+ e+ e+ e+ q    e+ e+ e+ e+ q
F|----------------------|----------------|----------------|
C|----------------------|----------------|----------------|
G|----------------------|----------------|----------------|
C|-5-5-5-5-x-x-5--5--5--|-8--8--8--8--8--|-7--7--7--7--7--|

Verse 1
0:20
   e  e  e  s e  e  s s s s s   e  e  e  s e  e  s s s s s
F|----------------------------|----------------------------|
C|----5--5----5--5----5-5---5-|----5--5----5--5----5-5---5-|
G|----------------------------|----------------------------|
C|-5--------5-------5-----5---|-5--------5-------5-----5---|

   e e e s e e s s s s s   e e e s e s s s s s s s
F|-----------------------|-------------------------|
C|---5-5---5-5---5-5---5-|---5-5---5-3-5-6-7-6-5-3-|
G|-----------------------|-------------------------|
C|-5-----5-----5-----5---|-5-----5-----------------|

0:31
   e  e  e  s e  e  s s s s s   e  e  e  s e  e  s s s s s 
F|----------------------------|----------------------------|
C|----------------------------|----------------------------|
G|-6--6--6--6-6--6--6-8-8-8-8-|-6--6--6--6-6--6--6-8-8-8-8-|
C|----------------------------|----------------------------|

0:37
   e e e s e e s s s s s   e e e s e+ s s s s s s
F|-----------------------|------------------------|
C|---5-5---5-5---5-5---5-|---5-5---5----5-7-5-3-0-|
G|-----------------------|------------------------|
C|-5-----5-----5-----5---|-5-----5----5-----------|

   e e e s e e s s s s s   e e e s e e s s s s s
F|-----------------------|-----------------------|
C|---5-5---5-5---5-5---5-|---5-5---5-5---5-5---5-|
G|-----------------------|-----------------------|
C|-5-----5-----5-----5---|-5-----5-----5-----5---|

   e e e s e e s s s s s   e e e s e s s s s s s s
F|-----------------------|-------------------------|
C|---5-5---5-5---5-5---5-|---5-5---5-3-5-6-7-6-5-3-|
G|-----------------------|-------------------------|
C|-5-----5-----5-----5---|-5-----5-----------------|

0:52
   e  e  e  s e  e  s s s s s   e  e  e  s e  e  s s s s s 
F|----------------------------|----------------------------|
C|----------------------------|----------------------------|
G|-6--6--6--6-6--6--6-8-8-8-8-|-6--6--6--6-6--6--6-8-8-8-8-|
C|----------------------------|----------------------------|

   e e e s e e s s s s s   e e e s e+ s s s s e
F|-----------------------|----------------------|
C|---5-5---5-5---5-5---5-|---5-5---5~-5-7-5-3-0-|
G|-----------------------|----------------------|
C|-5-----5-----5-----5---|-5-----5--------------|


Pre-Chorus 
1:02
   e+  s e  e+ [e+ q]    e+  s e  e+ [e+ q]   e+  s e  e+ [e+ q]   q q q q 
F|---------------------|--------------------|--------------------|---------|
C|---------------------|--------------------|--------------------|---------|
G|---------------------|--------------------|--------------------|-------0-|
C|-1---1-1--1---1-(1)--|-1---1-1--1---1-(1)-|-5---5-5--5---5-(5)-|-5-0-5---|

   e+  s e  e+  e+  s e+    e+  s e  e+  s e  s s s s 
F|------------------------|---------------------------|
C|------------------------|---------------------------|
G|------------------------|---------------------------|
C|-1---1-1--1---1---x-x---|-1---1-1--1---1-1--1-1-1-1-|


Chorus 1
1:18
   w   h q q    e+ s e  s e  s e+   e+ s e e q  q    e+ s e  s e  s e+
F|---|--------|-------------------|----------------|-------------------|
C|---|--------|-------------------|----------------|-------------------|
G|-r-|-r-r----|-------------------|----------------|-------------------|
C|---|-----3\-|-5--5-5--5-5--5-5--|-5--5-5-5-5--0--|-1--1-1--1-1--1-1--|

   e+ s e  s e  s e+   e+ s e  s e  s e+  w
F|-------------------|------------------|----|
C|-------------------|------------------|----|
G|-------------------|------------------|----|
C|-1--1-1--1-1--1-1--|-3--3-3--3-3--3-3-|-3~-|

Verse 2
1:39
   e e e s e e s s s s s   e e e s e+ s s s s s s
F|-----------------------|------------------------|
C|---5-5---5-5---5-5---5-|---5-5---5----5-7-5-3-0-|
G|-----------------------|------------------------|
C|-5-----5-----5-----5---|-5-----5----5-----------|

   e e e s e e s s s s s   e e e s e e s s s s s
F|-----------------------|-----------------------|
C|---5-5---5-5---5-5---5-|---5-5---5-5---5-5---5-|
G|-----------------------|-----------------------|
C|-5-----5-----5-----5---|-5-----5-----5-----5---|

   e e e s e e s s s s s   e e e s e+ s s s s s s
F|-----------------------|------------------------|
C|---5-5---5-5---5-5---5-|---5-5---5--3-5-7-6-3-0-|
G|-----------------------|------------------------|
C|-5-----5-----5-----5---|-5-----5----------------|

1:55
   s s s s s s s s s s s s s s s s   s s s s s s s s s s s s s s s s
F|---------------------------------|---------------------------------|
C|---------------------------------|---------------------------------|
G|-6-6-6-6-6-6-6-6-6-6-6-6-6-6-6-8-|-6-6-6-6-6-6-6-6-6-6-6-6-8-8-8-8-|
C|---------------------------------|---------------------------------|

2:00
   e e e s e e s s s s s   e e e s e+ s s s s e
F|-----------------------|----------------------|
C|---5-5---5-5---5-5---5-|---5-5---5~-5-7-5-3-0-|
G|-----------------------|----------------------|
C|-5-----5-----5-----5---|-5-----5--------------|


Pre-Chorus 
2:05
   e+ s e  e+[e+ q]   e+ s e  e+[e+ q]   e+ s e  e+[e+ q]   q q q q 
F|------------------|------------------|------------------|---------|
C|------------------|------------------|------------------|---------|
G|------------------|------------------|------------------|-------0-|
C|-1--1-1--1--1--1--|-1--1-1--1--1--1--|-5--5-5--5--5--5--|-5-0-5---|

   e+ s e  e+ e+ s e+   e+ s e  e+ s e  s s s s 
F|--------------------|-------------------------|
C|--------------------|-------------------------|
G|--------------------|-------------------------|
C|-1--1-1--1--1--x-x--|-1--1-1--1--1-1--1-1-1-3-|

Chorus 2
2:21
   e+ s s s e+ s e q    e+ s s s e q  q
F|--------------------|------------------|
C|--------------------|------------------|
G|-1--1-x-x-1--1-1-1--|-1--1-x-x-1-1--0--|
C|--------------------|------------------|

   e+ s s s e+ s e q    e+ s s s e q  q
F|--------------------|------------------|
C|--------------------|------------------|
G|--------------------|------------------|
C|-5--5-x-x-5--5-5-5--|-5--5-x-x-5-5--0--|

   e+  e  s e+  s e  q      e+  e  s e+  s e  q
F|------------------------|------------------------|
C|------------------------|------------------------|
G|------------------------|------------------------|
C|-1---1--1-1---1-1--1----|-1---1--1-1---1-1--1----|

   e+  e  s e+  s e  q      e+  e  s e+  s e  q    
F|------------------------|------------------------|
C|------------------------|------------------------|
G|------------------------|------------------------|
C|-3---3--3-3---3-3--3----|-3---3--3-3---3-3--3----|

Bridge
2:43
   e+ s q  e e q    e+ s q  e e q    e+ s q  e e q    w
F|----------------|----------------|----------------|---|
C|----------------|----------------|----------------|-1-|
G|----------------|----------------|----------------|---|
C|-5~-5-r--5-5-r--|-1~-1-r--1-1-r--|-3~-3-r--3-3-r--|---|

2:53
   s s s s s s s s s s s s s s s s   s s s s s s s s s s s s s s s s
F|---------------------------------|---------------------------------|
C|---------------------------------|---------------------------------|
G|---------------------------------|---------------------------------|
C|-5-5-5-5-5-5-5-5-5-5-5-5-5-5-5-5-|-1-1-1-1-1-1-1-1-1-1-1-1-1-1-1-1-|

   s s s s s s s s s s s s s s s s   s s s s s s s s s s s s s s s s
F|---------------------------------|---------------------------------|
C|---------------------------------|---------------------------------|
G|---------------------------------|-1-1-1-1-1-1-1-1-0-0-0-0-0-0-0-0-|
C|-3-3-3-3-3-3-3-3-3-3-3-3-3-3-3-3-|---------------------------------|


Chorus 3
3:03 Triplets
   e+ e+ e e+ e+ e   e+ e+ e q  q    e+ e+ e e+ e+ e   e+ e+ e q  q
F|-----------------|---------------|-----------------|--------------|
C|-----------------|---------------|-----------------|--------------|
G|-1--1--1-1--1--1-|-1--1--1-1--0--|-----------------|--------------|
C|-----------------|---------------|-5--5--5-5--5--5-|-5--5--5-5--0-|

   e+ e+ e e+ e+ e   e+ e+ e e+ e+ e   e+ e+ e e+ e+ e   e+ e+ e e+ e+ e
F|-----------------|-----------------|-----------------|-----------------|
C|-----------------|-----------------|-----------------|-----------------|
G|-----------------|-----------------|-----------------|-----------------|
C|-1--1--1-1--1--1-|-1--1--1-1--1--1-|-3--3--3-3--3--3-|-3--3--3-3--3--3-|

Outro
   h  q q   w
F|--------|-----|
C|--------|-----|
G|--------|-----|
C|-5~-5-5-|-5~~-|

Tabbed by: Dave Vucko
comments
We did not receive enough feedback on this tab! Please rate:
1 2 3 4 5
I want to post or [tab]
guest
You may want to rate the tab now too:
select rating
Please do not post tabs as comments. Select "correction" instead!