Oops, an error
Loading. Please wait.

Breath Tab

ver4
ver4

Intro

Whole song

More versions @911Tabs.com
24,125 views 24 this week
7 commentsread comments
1 2 3 4 5
excellent!
x 8
Autoscroll
+/-
esc
set tempo
stop
Contributor
Difficulty
Tuning
intermediate
C G C F A D
WARNING: You are trying to view
                                    content from Ultimate-Guitar.com
                                    in an unauthorized application,
                                    which is prohibited.

                                    Please use an official Ultimate
                                    Guitar Tabs application for iPhone,
                                    iPad or Android to access legitimate
                                    chords, guitar, bass, and drum tabs
                                    from Ultimate-Guitar.com database.

                                    Type "ultimate guitar tabs" in Apple
                                    App Store's or Android Market's
                                    search to find the application.
Breath by Breaking Benjamin
Guitars are all in Drop C
Feel free to PM me for any enquiries
 Intro
  Q=95
 4/4
  Gtr I
  S S S S S S e.  E.  Q     S S S S S S e.  E.   Q
|-------------------------|---------------------------|
|-------------------------|---------------------------|
|-------------------------|---------------------------|
|-7-7-7-7-x-x-7---7---8---|-7-7-7-7-x-x-7---7----8----|
|-5-5-5-5-x-x-5---5---5---|-5-5-5-5-x-x-5---5----5----|
|-------------------------|---------------------------|


  Gtr II
   E.  E.  E.   E.    S     S    S S
|--------------------------------------|
|--------------------------------------|
|--------------------------------------|
|--8---8---8----8-----8-----8----8-8---|
|--8---8---8----8-----8-----8----8-8---|
|--8---8---8----8-----8-----8----8-8---|
|
| Gtr III
|  E.  E.  E    S   E    E.    E
|-13-----------------------------------|
|-----15--13---15--16---15-------------|
|-----------------------------15-------|
|--------------------------------------|
|--------------------------------------|
|--------------------------------------|


   E.      E.   E.     E.     S   S    S     S
|-------------------------------------------------|
|-------------------------------------------------|
|-------------------------------------------------|
|-10------10---10-----10-----10--10---10----10----|
|--8-------8----8------8------8---8----8-----8----|
|--7-------7----7------7------7---7----7-----7----|
|
|  E.  E.  E        S      E      E.      E
|-13----------------------------------------------|
|-----15--13-------15-----16-----15---------------|
|----------------------------------------15-------|
|-------------------------------------------------|
|-------------------------------------------------|
|-------------------------------------------------|


   S  S  S  S     S  S    E. E. Q
|-------------------------------------|
|-------------------------------------|
|-------------------------------------|
|--7--7--7--7-----x--x----7--7--8-----|
|--5--5--5--5-----x--x----5--5--5-----|
|--5--5--5--5-----x--x----5--5--5-----|
|
|  E.    E.    E.    E.   Q
|-17----------18----17----------------|
|-------18---------------18-----------|
|-------------------------------------|
|-------------------------------------|
|-------------------------------------|
|-------------------------------------|


   S    S    S   S     S S    E.  E.  Q
|------------------------------------------|
|------------------------------------------|
|------------------------------------------|
|--7----7----7---7-----x-x----7---7---8----|
|--5----5----5---5-----x-x----5---5---5----|
|--5----5----5---5-----x-x----5---5---5----|
|
|  E.   E.   E.     E.      Q
|-17--------18-----17----------------------|
|------18------------------18--------------|
|------------------------------------------|
|------------------------------------------|
|------------------------------------------|
|------------------------------------------|


   E.   E.  E.   E.   S S  S S      E.    E.    E.    E.    S  S  S  S
|--------------------------------|---------------------------------------|
|--------------------------------|---------------------------------------|
|--------------------------------|---------------------------------------|
|--8----8---8----8----8-8--8-8---|-10----10----10----10----10-10-10-10---|
|--8----8---8----8----8-8--8-8---|--8-----8-----8-----8-----8--8--8--8---|
|--8----8---8----8----8-8--8-8---|--7-----7-----7-----7-----7--7--7--7---|
|
|  Q.   Q.       Q                  Q.    Q.          Q
|---------------10---------------|--8------------------------------------|
|-11-----------------------------|-------------------10------------------|
|------10------------------------|-------10------------------------------|
|--------------------------------|---------------------------------------|
|--------------------------------|---------------------------------------|
|--------------------------------|---------------------------------------|


 Verse
  W                               W
|-----------------------|-----|----------------------|--------|
|-8---------------------|-----|----------------------|--------|
|-----------------------|-----|----------------------|--------|
|-5---------------------|-----|----------------------|--------|
|-5---------------------|-----|----------------------|--------|
|-5---------------------|-----|----------------------|--------|
|
| Gtr I
| E E E  E  S  E  E.  E   +W    E E E  E  S E  E.  E   +W
|-----3--6--3h=5--3-----|-----|-----3--6--3h5--3---6-|-(6)----|
|---3-----------------3-|-(3)-|---3------------------|--------|
|-0---------------------|-----|-0--------------------|--------|
|-----------------------|-----|----------------------|--------|
|-----------------------|-----|----------------------|--------|
|-----------------------|-----|----------------------|--------|


  Gtr I
  E E E E  E.  E  +S   E   +W    E E E  E  S  E  E.  E   +W
|-------1--6---1--(1)h=3-|-(3)-|-----3--6--3--5--3-----|--------|
|-----4------------------|-----|---3-----------------3-|-(3)----|
|---3--------------------|-----|-0---------------------|--------|
|-1----------------------|-----|-----------------------|--------|
|------------------------|-----|-----------------------|--------|
|------------------------|-----|-----------------------|--------|


  W                               W
|-----------------------|-----|----------------------|--------|
|-----------------------|-----|----------------------|--------|
|-----------------------|-----|----------------------|--------|
|-----------------------|-----|----------------------|--------|
|-----------------------|-----|----------------------|--------|
|-----------------------|-----|----------------------|--------|
|
| Gtr I
| E E E  E  S  E  E.  E   +W    E E E  E  S E  E.  E   +W
|-----3--6--3h=5--3-----|-----|-----3--6--3h5--3---6-|-(6)----|
|---3-----------------3-|-(3)-|---3------------------|--------|
|-0---------------------|-----|-0--------------------|--------|
|-----------------------|-----|----------------------|--------|
|-----------------------|-----|----------------------|--------|
|-----------------------|-----|----------------------|--------|


  E E E E    E.   E  S  E   +W    E E E  E S E E. E   +W
|-------1----6----1--1--3-|-(3)-|-----3--6-3h5-3--6-|-(6)------------|
|-----4-------------------|-----|---3---------------|----------------|
|---3---------------------|-----|-0-----------------|----------------|
|-1-----------------------|-----|-------------------|----------------|
|-------------------------|-----|-------------------|----------------|
|-------------------------|-----|-------------------|----------------|
|
|          Gtr II
|          W                 W    W                    H.    S S S S
|-------------------------|-----|-------------------|----------------|
|-------------------------|-----|-------------------|----------------|
|-------------------------|-----|-------------------|----------------|
|-------------------------|-----|-------------------|--------x-x-x-x-|
|-------------------------|-----|-------------------|--------x-x-x-x-|
|-------------------------|-----|-------------------|--------x-x-x-x-|


 Pre-Chorus
  Gtrs II, III
  E.   E. E.  E. S S S S   E.  E. E. E. S S S S
|------------------------|----------------------|
|----------------3-3-3-3-|--------------3-3-3-3-|
|------------------------|----------------------|
|-1----1--1---1----------|-1---1--1--1----------|
|-1----1--1---1----------|-1---1--1--1----------|
|-1----1--1---1----------|-1---1--1--1----------|


  E. E. E. E. S S S S   Q Q Q Q
|---------------------|---------|
|---------------------|---------|
|-------------7-7-7-7-|---------|
|-5--5--5--5----------|-5-0-5-7-|
|-5--5--5--5----------|-5-0-5-7-|
|-5--5--5--5----------|-5-0-5-7-|


                                         Chorus
  E. E.  E. E.  S e  S   E. E.   E. Q..   S S  S  S  S  S S  S  S  S  S  S S S S S
|----------------------|----------------|------------------------------------------|
|----------------------|----------------|-6-6--6--6--6--6-3--3--3--3--3--3-6-6-6-6-|
|----------------------|----------------|------------------------------------------|
|-1--1---1--1---x-x--x-|-1--1----1--1---|------------------------------------------|
|-1--1---1--1---x-x--x-|-1--1----1--1---|------------------------------------------|
|-1--1---1--1---x-x--x-|-1--1----1--1---|------------------------------------------|
|
|    Gtr I
| W                      W                E S  E  S  E  S    E  S  E  S  S
|----------------------|----------------|------------------------------------------|
|----------------------|----------------|------------------------------------------|
|----------------------|----------------|------------------------------------------|
|----------------------|----------------|-8-8-10-10-12-12---12-12-10-10-10---------|
|----------------------|----------------|-8-8--8--8--8--8----8--8--8--8--8---------|
|----------------------|----------------|-8-8--8--8--8--8----8--8--8--8--8---------|
|
|       Gtr III
|        W                     W               W
|----------------------|----------------|------------------------------------------|
|----------------------|----------------|------------------------------------------|
|----------------------|----------------|------------------------------------------|
|----------------------|----------------|------------------------------------------|
|----------------------|----------------|------------------------------------------|
|----------------------|----------------|------------------------------------------|


   S  S   S  S  S  S  S  S  S S  S  S   S S S S
|--------------------------------------------------|
|--6--6---6--6--6--6--6--6--6-6--6--6---8-8-8-8----|
|--------------------------------------------------|
|--------------------------------------------------|
|--------------------------------------------------|
|--------------------------------------------------|
|
|  E  S   E  S  E  S  E  S  E    S  S
|--------------------------------------------------|
|--------------------------------------------------|
|--------------------------------------------------|
|-10-10--10-10-12-12-12-12-10---10-10--------------|
|--8--8---8--8--8--8--8--8--8----8--8--------------|
|--8--8---8--8--8--8--8--8--8----8--8--------------|
|
|     H.                                  S e    S
|--------------------------------------------------|
|--------------------------------------------------|
|--------------------------------------------------|
|-----------------------------------------x-x----x-|
|-----------------------------------------x-x----x-|
|-----------------------------------------x-x----x-|


  Gtrs II, IV
  E   S   E. E.   E.   E   S   S       E   S   E. E.   E.   Q
|------------------------------------|--------------------------------------|
|------------------------------------|--------------------------------------|
|------------------------------------|--------------------------------------|
|-5---5---5--5----5----5---5---5-----|-5---5---5--5----5----0---------------|
|-5---5---5--5----5----5---5---5-----|-5---5---5--5----5----0---------------|
|-5---5---5--5----5----5---5---5-----|-5---5---5--5----5----0---------------|
|
| Gtr III
| S S S S S  S  S S  S S S S S S S S   S S S S S  S  S S  S S S S S S S S
|------------------------------------|--------------------------------------|
|-8-8-8-8-8--8--8-8--8-8-8-8-8-8-8-8-|-8-8-8-8-8--8--8-8--8-8-8-8-8-8-8-8---|
|------------------------------------|--------------------------------------|
|------------------------------------|--------------------------------------|
|------------------------------------|--------------------------------------|
|------------------------------------|--------------------------------------|


  E   S   E.   E.   E.   E   S   S     E   S   E.   E.   E.   E   S   S
|------------------------------------|--------------------------------------|
|------------------------------------|--------------------------------------|
|------------------------------------|--------------------------------------|
|-1---1---1----1----1----1---1---1---|-1---1---1----1----1----1---1---1-----|
|-1---1---1----1----1----1---1---1---|-1---1---1----1----1----1---1---1-----|
|-1---1---1----1----1----1---1---1---|-1---1---1----1----1----1---1---1-----|
|
| S S S S S  S S  S S  S S S S S S S   S S S S S  S S  S S  S S S S S S S
|-6-6-6-6-6--6-6--6-6--6-6-6-5-5-5-5-|-6-6-6-6-6--6-6--6-6--6-6-6-6-6-6-6---|
|------------------------------------|--------------------------------------|
|------------------------------------|--------------------------------------|
|------------------------------------|--------------------------------------|
|------------------------------------|--------------------------------------|
|------------------------------------|--------------------------------------|


  E.   E.   E.   E.   E   E             W
|-------------------------------------|------|
|-------------------------------------|------|
|-------------------------------------|------|
|-3----3----3----3----3---3-----------|-3----|
|-3----3----3----3----3---3-----------|-3----|
|-3----3----3----3----3---3-----------|-3----|
|
| S  S S  S S  S S  S S S S S S S S S   W
|-8--8-8--8-8--8-8--8-8-8-8-8-8-8-8-8-|-8----|
|-------------------------------------|------|
|-------------------------------------|------|
|-------------------------------------|------|
|-------------------------------------|------|
|-------------------------------------|------|


  Gtr I
  E    E    E     E    S    E    E.   E   +W
|-----------3-----6----3h===5----3------|--------|
|------3------------------------------3-|-(3)----|
|-0-------------------------------------|--------|
|---------------------------------------|--------|
|---------------------------------------|--------|
|---------------------------------------|--------|


  W                               W
|-----------------------|-----|----------------------|--------|
|-----------------------|-----|----------------------|--------|
|-----------------------|-----|----------------------|--------|
|-----------------------|-----|----------------------|--------|
|-----------------------|-----|----------------------|--------|
|-----------------------|-----|----------------------|--------|
|
| Gtr I
| E E E  E  S  E  E.  E   +W    E E E  E  S E  E.  E   +W
|-----3--6--3h=5--3-----|-----|-----3--6--3h5--3---6-|-(6)----|
|---3-----------------3-|-(3)-|---3------------------|--------|
|-0---------------------|-----|-0--------------------|--------|
|-----------------------|-----|----------------------|--------|
|-----------------------|-----|----------------------|--------|
|-----------------------|-----|----------------------|--------|


  E E E E    E.   E  S  E   +W    E E E  E S E E. E   +W
|-------1----6----1--1--3-|-(3)-|-----3--6-3h5-3--6-|-(6)------------|
|-----4-------------------|-----|---3---------------|----------------|
|---3---------------------|-----|-0-----------------|----------------|
|-1-----------------------|-----|-------------------|----------------|
|-------------------------|-----|-------------------|----------------|
|-------------------------|-----|-------------------|----------------|
|
|          Gtr II
|          W                 W    W                    H.    S S S S
|-------------------------|-----|-------------------|----------------|
|-------------------------|-----|-------------------|----------------|
|-------------------------|-----|-------------------|----------------|
|-------------------------|-----|-------------------|--------x-x-x-x-|
|-------------------------|-----|-------------------|--------x-x-x-x-|
|-------------------------|-----|-------------------|--------x-x-x-x-|


 Pre-Chorus
  Gtrs II, III
  E.   E. E.  E. S S S S   E.  E. E. E. S S S S
|------------------------|----------------------|
|----------------3-3-3-3-|--------------3-3-3-3-|
|------------------------|----------------------|
|-1----1--1---1----------|-1---1--1--1----------|
|-1----1--1---1----------|-1---1--1--1----------|
|-1----1--1---1----------|-1---1--1--1----------|


  E. E. E. E. S S S S   Q Q Q Q
|---------------------|---------|
|---------------------|---------|
|-------------7-7-7-7-|---------|
|-5--5--5--5----------|-5-0-5-7-|
|-5--5--5--5----------|-5-0-5-7-|
|-5--5--5--5----------|-5-0-5-7-|


  E. E.  E. E.  S e  S   E. E. E. E. Q
|----------------------|---------------|
|----------------------|---------------|
|----------------------|---------------|
|-1--1---1--1---x-x--x-|-1--1--1--1--1-|
|-1--1---1--1---x-x--x-|-1--1--1--1--1-|
|-1--1---1--1---x-x--x-|-1--1--1--1--1-|
|
|    Gtr I
| W                      W
|----------------------|---------------|
|----------------------|---------------|
|----------------------|---------------|
|----------------------|---------------|
|----------------------|---------------|
|----------------------|---------------|


 Chorus
  S  S S S S S S S S S S S S S S S   S  S S S S S S S S S S S   S S S S
|----------------------------------|--------------------------------------|
|-6--6-6-6-6-6-3-3-3-3-3-3-6-6-6-6-|-6--6-6-6-6-6-6-6-6-6-6-6---8-8-8-8---|
|----------------------------------|--------------------------------------|
|----------------------------------|--------------------------------------|
|----------------------------------|--------------------------------------|
|----------------------------------|--------------------------------------|
|
| Gtrs III, IV
| E. S S S E S   E S E S S           E. S S S E S E S E   S S
|----------------------------------|--------------------------------------|
|----------------------------------|--------------------------------------|
|----------------------------------|--------------------------------------|
|-8--8-x-x-8-8---8-8-8-8-8---------|-8--8-x-x-8-8-8-8-8---8-8-------------|
|-8--8-x-x-8-8---8-8-8-8-8---------|-8--8-x-x-8-8-8-8-8---8-8-------------|
|-8--8-x-x-8-8---8-8-8-8-8---------|-8--8-x-x-8-8-8-8-7---7-7-------------|


  E. S S S E S   E S E S S           E. S S S E S     E. Q
|----------------------------------|-------------------------------------|
|----------------------------------|-------------------------------------|
|----------------------------------|-------------------------------------|
|-5--5-x-x-5-5---5-5-5-5-5---------|-5--5-x-x-5-5-----5--0---------------|
|-5--5-x-x-5-5---5-5-5-5-5---------|-5--5-x-x-5-5-----5--0---------------|
|-5--5-x-x-5-5---5-5-5-5-5---------|-5--5-x-x-5-5-----5--0---------------|
|
| S  S S S S S S S S S S S S S S S   S  S S S S S S S S  S S S S S S S
|----------------------------------|-------------------------------------|
|-8--8-8-8-8-8-8-8-8-8-8-8-8-8-8-8-|-8--8-8-8-8-8-8-8-8--8-8-8-8-8-8-8---|
|----------------------------------|-------------------------------------|
|----------------------------------|-------------------------------------|
|----------------------------------|-------------------------------------|
|----------------------------------|-------------------------------------|


  E   S E. E. E.   E     S   S         E   S   E. E.     E.   E     S     S
|------------------------------------|---------------------------------------|
|------------------------------------|---------------------------------------|
|------------------------------------|---------------------------------------|
|-1---1-1--1--1----1-----1---1-------|-1---1---1--1------1----1-----1-----1--|
|-1---1-1--1--1----1-----1---1-------|-1---1---1--1------1----1-----1-----1--|
|-1---1-1--1--1----1-----1---1-------|-1---1---1--1------1----1-----1-----1--|
|
| S S S S  S  S  S S S S S S S S S S   S S S S S  S  S S S  S S S S S S S
|-6-6-6-6--6--6--6-6-6-6-6-6-5-5-5-5-|-6-6-6-6-6--6--6-6-6--6-6-6-6-6-6-6----|
|------------------------------------|---------------------------------------|
|------------------------------------|---------------------------------------|
|------------------------------------|---------------------------------------|
|------------------------------------|---------------------------------------|
|------------------------------------|---------------------------------------|


  E.   E.   E.   E.   E   E             E.   E.     E.     E.     E     E
|-------------------------------------|---------------------------------------|
|-------------------------------------|---------------------------------------|
|-------------------------------------|---------------------------------------|
|-3----3----3----3----3---3-----------|-3----3------3------3------3-----3-----|
|-3----3----3----3----3---3-----------|-3----3------3------3------3-----3-----|
|-3----3----3----3----3---3-----------|-3----3------3------3------3-----3-----|
|
| S  S S  S S  S S  S S S S S S S S S   S  S S  S S S  S S S  S S S S S S S
|-8--8-8--8-8--8-8--8-8-8-8-8-8-8-8-8-|-8--8-8--8-8-8--8-8-8--8-8-8-8-8-8-8---|
|-------------------------------------|---------------------------------------|
|-------------------------------------|---------------------------------------|
|-------------------------------------|---------------------------------------|
|-------------------------------------|---------------------------------------|
|-------------------------------------|---------------------------------------|


                          PM                                PM
  E   E   S   S   S S S S S S S S S S   E   E   S S S S S S S S S S S S
|-------------------------------------|---------------------------------|
|-------------------------------------|---------------------------------|
|-------------------------------------|---------------------------------|
|-5---5---x---x---x-5---5-5-5-x-x-x-x-|-1---1---x-x-x-1---1-1-1-x-x-x-x-|
|-5---5---x---x---x-5---5-5-5-x-x-x-x-|-1---1---x-x-x-1---1-1-1-x-x-x-x-|
|-5---5---x---x---x-5---5-5-5-x-x-x-x-|-1---1---x-x-x-1---1-1-1-x-x-x-x-|
|
| E S S S S S S S S S       S S S S S   E S S S S S S S S S S S S S S
|-3-3-3-3-3-3-3-----------------------|---------------------------------|
|-----------------3---------3-3-3-3-3-|-4-4-4-4-4-4-4---3---3-3-3-3-3---|
|-------------------------------------|---------------------------------|
|-------------------------------------|---------------------------------|
|-------------------------------------|---------------------------------|
|-------------------------------------|---------------------------------|


  E   E   S   S   S S S S S S S S S S   W
|-------------------------------------|---------------------------------|
|-------------------------------------|---------------------------------|
|-------------------------------------|---------------------------------|
|-3---3---x---x---x-3---3-3-3-x-x-x-x-|-1-------------------------------|
|-3---3---x---x---x-3---3-3-3-x-x-x-x-|-1-------------------------------|
|-3---3---x---x---x-3---3-3-3-x-x-x-x-|-1-------------------------------|
|
| E S S S S S S S S S S S S S S         S S S S S S S S S S S S S S S S
|-------------------------------------|---------------------------------|
|-1-1-1-1-1-3-3---1---1-1-1-1-1-------|---------------------------------|
|-------------------------------------|-3-3-3-3-3-3-3-3-2-2-2-2-2-2-2-2-|
|-------------------------------------|---------------------------------|
|-------------------------------------|---------------------------------|
|-------------------------------------|---------------------------------|


  E.  S  E  E.  E  S  E S S    E.  S   E  E. E  S  E  S  S
|----------------------------|------------------------------|
|----------------------------|------------------------------|
|----------------------------|------------------------------|
|-5---5--5--5---5--5--5-5-5--|-1---1---1--1--1--1--1--1--1--|
|-5---5--5--5---5--5--5-5-5--|-1---1---1--1--1--1--1--1--1--|
|-5---5--5--5---5--5--5-5-5--|-1---1---1--1--1--1--1--1--1--|


                              PM----------------|
  E.  S  E  E.  E  S  E S S   S S S S S S S S S S S S S S S S
|---------------------------|------------------------------------|
|---------------------------|------------------------------------|
|---------------------------|------------------------------------|
|-3---3--3--3---3--3--3-3-3-|------------------------------------|
|-3---3--3--3---3--3--3-3-3-|-8-8-8-8-8-8-8-8-7-7-7-7-7-7-7-7----|
|-3---3--3--3---3--3--3-3-3-|-8-8-8-8-8-8-8-8-7-7-7-7-7-7-7-7----|


  E.  E.  E      E.  E.  E      E.  E.  E     E E  E E
|-----------------------------|---------------------------|
|-----------------------------|---------------------------|
|-----------------------------|---------------------------|
|-8---8---8------8---8---8----|-8---8---8-----8-8--8-8----|
|-8---8---8------8---8---8----|-8---8---8-----8-8--8-8----|
|-8---8---8------8---8---8----|-8---8---8-----8-8--7-7----|
|
| E.  E.  E  E.  E.  E          E.  E.  E  E.   E.   E
|-6-------6--8---6---5--------|-6-------6--8----6----5----|
|-----6-----------------------|-----6---------------------|
|-----------------------------|---------------------------|
|-----------------------------|---------------------------|
|-----------------------------|---------------------------|
|-----------------------------|---------------------------|


  E.  E.  E     E.    E.   E      E.  E.  E  Q    Q
|-------------------------------|------------------------------|
|-------------------------------|------------------------------|
|-------------------------------|------------------------------|
|-5---5---5-----5-----5----5----|-5---5---5--5----0------------|
|-5---5---5-----5-----5----5----|-5---5---5--5----0------------|
|-5---5---5-----5-----5----5----|-5---5---5--5----0------------|
|
| E.  E.  E  E.    E.    E        E.  E.  E    E.    E.   E
|-6-------6--8-----6-----5------|-6-------6----8-----6----5----|
|-----6-------------------------|-----6------------------------|
|-------------------------------|------------------------------|
|-------------------------------|------------------------------|
|-------------------------------|------------------------------|
|-------------------------------|------------------------------|


   E   S    E.   E.   E   S  E S S    E   S    E.   E.   E   S  E  S  S
|----------------------------------|--------------------------------------|
|----------------------------------|--------------------------------------|
|----------------------------------|--------------------------------------|
|--1---1----1----1----1---1--1-1-1-|--1---1----1----1----1---1--1--1--1---|
|--1---1----1----1----1---1--1-1-1-|--1---1----1----1----1---1--1--1--1---|
|--1---1----1----1----1---1--1-1-1-|--1---1----1----1----1---1--1--1--1---|
|
|  E.  E.   E    E.   E.  E           E.  E.   E    E.   E.  E
|-10---8---10---11---10---8--------|-10---8---10---11---10---8------------|
|----------------------------------|--------------------------------------|
|----------------------------------|--------------------------------------|
|----------------------------------|--------------------------------------|
|----------------------------------|--------------------------------------|
|----------------------------------|--------------------------------------|


  E.  E   S  E.  E   S E  S  S    E.  E  S  E.   E  S E S   S
|-------------------------------|------------------------------|
|-------------------------------|------------------------------|
|-------------------------------|------------------------------|
|-3---3---3--3---3---3-3--3--3--|-3---3--3--3----3--3-3-3---3--|
|-3---3---3--3---3---3-3--3--3--|-3---3--3--3----3--3-3-3---3--|
|-3---3---3--3---3---3-3--3--3--|-3---3--3--3----3--3-3-3---3--|
|
| E.  E.  E  E.  E.  E            H            H
|-6-------6--8---6---5----------|-6------------5---------------|
|-----6-------------------------|------------------------------|
|-------------------------------|------------------------------|
|-------------------------------|------------------------------|
|-------------------------------|------------------------------|
|-------------------------------|------------------------------|


  >
  W                           +W
|---------------------------|--------|
|-8-------------------------|-(8)----|
|---------------------------|--------|
|-5-------------------------|-(5)----|
|-5-------------------------|-(5)----|
|-5-------------------------|-(5)----|
|
| Gtr I
| E  E  E  E  S  E  E.   E    +W
|-------3--6--3h=5--3-------|--------|
|----3-------------------3--|-(3)----|
|-0-------------------------|--------|
|---------------------------|--------|
|---------------------------|--------|
|---------------------------|--------|



End.
7 comments total. Showing first comments.
0 reply
b_ball_girl1021 wrote on July 17 2007, 02:14 pm

How you got this song to fit into Drop C is awsome but some of the notes are to high on your tab than what it is on the C.D. The correct tunning is in Drop Bb (A#) I personally saw that in the pre-Chorus instead of a F it's a C# (Db) power chord. But not bad. 4*

0 reply
b_ball_girl1021 wrote on July 17 2007, 02:18 pm

sorry mistype the power chord on the 1st fret should be on the third in the pre-chorus

0 reply
I-Z wrote on July 18 2007, 03:35 pm

it sounds pretty good to me 5 stars

I want to post or [tab]
guest
You may want to rate the tab now too:
select rating
Please do not post tabs as comments. Select "correction" instead!