Oops, an error
Loading. Please wait.

Dear Agony Tab

ver2
ver2

Album

Whole song

Interactive

More versions @911Tabs.com
9,099 views 6 this week
no commentswrite comment
1 2 3 4 5
accurate
x 5
Autoscroll
+/-
esc
set tempo
stop
Contributor
Difficulty
Tuning
novice
C G C F A D
Hey! There's an official Ultimate Guitar app which is ideal
for learning songs when you're away from computer. Get the app
WARNING: You are trying to view
                                    content from Ultimate-Guitar.com
                                    in an unauthorized application,
                                    which is prohibited.

                                    Please use an official Ultimate
                                    Guitar Tabs application for iPhone,
                                    iPad or Android to access legitimate
                                    chords, guitar, bass, and drum tabs
                                    from Ultimate-Guitar.com database.

                                    Type "ultimate guitar tabs" in Apple
                                    App Store's or Android Market's
                                    search to find the application.
----------------------------------------------------------------------------
                                 Dear Agony
                              Breaking Benjamin
----------------------------------------------------------------------------

This is a suggested song that I have come to like a lot. The variation between the lead
and rhythmic guitar is beautiful, and the lyrics are catchy. However, there is a flaw.
is very hard to hear the lead guitar for the chorus so be aware of a few errors, but I 
my best. I hope you like it! Enjoy!

Username: dkm817 (same on X box live)
Email: guitardrums@rockfan.com

Guitar 1 Rhythmic (C G C F A D)
Guitar 2 Lead     (C G C F A D)
Guitar 3 Mixed    (C G C F A D)

Intro

Guitar 2
D----------8~~~~--------------------8~~~~----------|
A--------------------------------------------------|
F-9~-10-9~--------9~-10----9~-10-9~-------9~-10----|
C-----------------------10----------------------10-|
G--------------------------------------------------|
C--------------------------------------------------|

Guitar 1 & 3
D-------------------------------------------------|
A-------------------------------------------------|
F-------------------------------------------------|
C-0--0--0--0--0--0--0--0--0--0--0--0--0--0--0--0--|
G-0--0--0--0--0--0--0--0--0--0--0--0--0--0--0--0--|
C-0--0--0--0--0--0--0--0--0--0--0--0--0--0--0--0--|

Guitar 2
D----------8~~~~--------------------8~~~~----------|
A--------------------------------------------------|
F-9~-10-9~--------9~-10----9~-10-9~-------9~-10----|
C-----------------------10----------------------10-|
G--------------------------------------------------|
C--------------------------------------------------|


Guitar 1 & 3
D-------------------------------------------------|
A-------------------------------------------------|
F-------------------------------------------------|
C-3--3--3--3--3--3--3--3--3--3--3--3--3--3--3--3--|
G-3--3--3--3--3--3--3--3--3--3--3--3--3--3--3--3--|
C-3--3--3--3--3--3--3--3--3--3--3--3--3--3--3--3--|

Guitar 2
D----------8~~~~--------------------8~~~~----------|
A--------------------------------------------------|
F-9~-10-9~--------9~-10----9~-10-9~-------9~-10----|
C-----------------------10----------------------10-|
G--------------------------------------------------|
C--------------------------------------------------|

Guitar 1 & 3
D-------------------------------------------------|
A-------------------------------------------------|
F-------------------------------------------------|
C-7--7--7--7--7--7--7--7--7--7--7--7--7--7--7--7--|
G-7--7--7--7--7--7--7--7--7--7--7--7--7--7--7--7--|
C-7--7--7--7--7--7--7--7--7--7--7--7--7--7--7--7--|

Guitar 2
D----------8~~~~--------------------8~~~~----------|
A--------------------------------------------------|
F-9~-10-9~--------9~-10----9~-10-9~-------9~-10----|
C-----------------------10----------------------10-|
G--------------------------------------------------|
C--------------------------------------------------|

Guitar 1 & 3
D--------------------------------------------------|
A--------------------------------------------------|
F--------------------------------------------------|
C-10-8~~~~~~~----0~-10-8~~~-8--8--8--8--8--7--7--7-|
G-10-8~~~~~~~----0~-10-8~~~-8--8--8--8--8--7--7--7-|
C-10-8~~~~~~~----0~-10-8~~~-8--8--8--8--8--7--7--7-|

Guitar 2
D----------8~~~~--------------------8~~~~----------|
A--------------------------------------------------|
F-9~-10-9~--------9~-10----9~-10-9~-------9~-10----|
C-----------------------10----------------------10-|
G--------------------------------------------------|
C--------------------------------------------------|

Verse 1

Guitar 1 & 3
D-----------------------------------------------|
A-----------------------------------------------|
F-----------------------------------------------|
C-3~~~~~~~~~~~~~~~~~~~~~~~~~~~~~~~~~~~~~~~~~~~~~
G-3~~~~~~~~~~~~~~~~~~~~~~~~~~~~~~~~~~~~~~~~~~~~~
C-3~~~~~~~~~~~~~~~~~~~~~~~~~~~~~~~~~~~~~~~~~~~~~

Guitar 2
D-----------3----------------------3-------------|
A-----6--------6-----6~~~----6--------6-----6~~~-|
F-5~~----5---------5-------5-----5--------5------|
C------------------------------------------------|
G------------------------------------------------|
C------------------------------------------------|

Guitar 1 & 3
D-----------------------------------------------|
A-----------------------------------------------|
F-----------------------------------------------|
C-----------------------------------------------|
G-----------------------------------------------|
C-----------------------------------------------|

Guitar 2
D-----------0----------------------0-------------|
A-----6--------6-----6~~~----6--------6-----6~~~-|
F-5------5--------5-------5-----5--------5-------|
C------------------------------------------------|
G------------------------------------------------|
C------------------------------------------------|

Guitar 2
D-----------3----------------------3-------------|
A-----6--------6-----6~~~----6--------6-----6~~~-|
F-5------5--------5-------5-----5--------5-------|
C------------------------------------------------|
G------------------------------------------------|
C------------------------------------------------|

Guitar 3
D-----------------------------------------------|
A-6~~~-6--6~~~~~~~~~----------------------------|
F-----------------------------------------------|
C-----------------------------------------------|
G-----------------------------------------------|
C-----------------------------------------------|

Guitar 2
D-----------8----------------------8-------------|
A-----6--------6-----6~~~----6--------6-----6~~~-|
F-5------5--------5-------5-----5--------5-------|
C------------------------------------------------|
G------------------------------------------------|
C------------------------------------------------|

Guitar 3
D-5~~~-5--5~~~~~~~~~-----------------------------|
A----------------------------------5~~~~~~~~~~~~-|
F------------------------------------------------|
C------------------------------------------------|
G------------------------------------------------|
C------------------------------------------------|

Guitar 1 & 2
D-----------3----------------------3-------------|
A-----6--------6-----6~~~----6--------6-----6~~~-|
F-5~~----5--------5-------5-----5--------5-------|
C------------------------------------------------|
G------------------------------------------------|
C------------------------------------------------|

Guitar 3
D----------------------------------------------|
A----------------------------------------------|
F----------------------------------------------|
C----------------------------------------------|
G----------------------------------------------|
C----------------------------------------------|

Guitar 1 & 2
D----------0----------------------0-------------|
A----6--------6-----6~~~----6--------6-----6~~~-|
F-5-----5--------5-------5-----5--------5-------|
C-----------------------------------------------|
G-----------------------------------------------|
C-----------------------------------------------|

Guitar 3
D----------------------------------------------|
A----------------------------------------------|
F----------------------------------------------|
C----------------------------------------------|
G----------------------------------------------|
C----------------------------------------------|

Guitar 1 & 2
D----------3----------------------3-------------|
A----6--------6-----6~~~----6--------6-----6~~~-|
F-5-----5--------5-------5-----5--------5-------|
C-----------------------------------------------|
G-----------------------------------------------|
C-----------------------------------------------|

Guitar 3
D----------------------------------------------|
A-6~~~-6--6~~~~~~~~~---------------------------|
F----------------------------------------------|
C----------------------------------------------|
G----------------------------------------------|
C----------------------------------------------|

Guitar 1
D----------8----------------------8------------|
A----6--------6-----6~~~----6--------6---------|
F-5-----5--------5-------5-----5---------------|
C-----------------------------------------x--x-|
G-----------------------------------------x--x-|
C-----------------------------------------x--x-|

Guitar 2
D----------8----------------------8-------------|
A----6--------6-----6~~~----6--------6-----6~~~-|
F-5-----5--------5-------5-----5--------5-------|
C-----------------------------------------------|
G-----------------------------------------------|
C-----------------------------------------------|

Guitar 3
D-5~~~-5--5~~~~~~~~~---------------------------|
A----------------------------------------------|
F----------------------------------------------|
C-----------------------------------------x--x-|
G-----------------------------------------x--x-|
C-----------------------------------------x--x-|

Pre Chorus

Guitar 1 & 3
D-----------------------------------------------|
A-----------------------------------------------|
F-----------------------------------------------|
C-0~~~~~~~~~~~~~~~~~~~~-10~~~~~~~~~~~~~~~~~~~~~~
G-0~~~~~~~~~~~~~~~~~~~~-10~~~~~~~~~~~~~~~~~~~~~~
C-0~~~~~~~~~~~~~~~~~~~~-10~~~~~~~~~~~~~~~~~~~~~~

Guitar 2
D-----------6----------------------8-------------|
A-----10-------10----10~~----10-------10----10~~-|
F-10~----10-------10------10----10-------10------|
C------------------------------------------------|
G------------------------------------------------|
C------------------------------------------------|

Guitar 1 & 3
D------------------------------------------------|
A------------------------------------------------|
F------------------------------------------------|
C-8~~~~~~~~~~~~~~~~~~-8~~~~~~~~~~~~x--10~~~~~~~~-|
G-8~~~~~~~~~~~~~~~~~~-8~~~~~~~~~~~-x--10~~~~~~~~-|
C-8~~~~~~~~~~~~~~~~~~-8~~~~~~~~~~~-x--10~~~~~~~~-|

Guitar 2
D----------3----------------------3--------------|
A----6--------6-----6~~~----6--------6-----6~~~--|
F-5-----5--------5-------5-----5--------5--------|
C------------------------------------------------|
G------------------------------------------------|
C------------------------------------------------|

Guitar 1 & 3
D-----------------------------------------------|
A-----------------------------------------------|
F-----------------------------------------------|
C-0~~~~~~~~~~~~~~~~~~~~-10~~~~~~~~~~~~~~~~~~~~~~
G-0~~~~~~~~~~~~~~~~~~~~-10~~~~~~~~~~~~~~~~~~~~~~
C-0~~~~~~~~~~~~~~~~~~~~-10~~~~~~~~~~~~~~~~~~~~~~

Guitar 2
D-----------6----------------------8-------------|
A-----10-------10----10~~----10-------10----10~~-|
F-10~----10-------10------10----10-------10------|
C------------------------------------------------|
G------------------------------------------------|
C------------------------------------------------|

Guitar 1 & 3
D------------------------------------------------|
A------------------------------------------------|
F------------------------------------------------|
C-8~~~~~~~~~-8--8--8--8--8--10-10-10-10-10-10-10-|
G-8~~~~~~~~~-8--8--8--8--8--10-10-10-10-10-10-10-|
C-8~~~~~~~~~-8--8--8--8--8--10-10-10-10-10-10-10-|

Guitar 2
D----------3----------------------3-------------|
A----6--------6-----6~~~----6--------6-----6~~~-|
F-5-----5--------5-------5-----5--------5-------|
C-----------------------------------------------|
G-----------------------------------------------|
C-----------------------------------------------|

Chorus 1

Guitar 1 & 3
D-------------------------------------------------|
A-------------------------------------------------|
F-------------------------------------------------|
C-3--3--3--3--3--3--3--3--3--3--3--3--3--3--2~~~~-|
G-3--3--3--3--3--3--3--3--3--3--3--3--3--3--2~~~~-|
C-3--3--3--3--3--3--3--3--3--3--3--3--3--3--2~~~~-|

Guitar 2
D-------------------------------------14-14-14-14-|
A-------------11-11-11-11-13-13-13-13-------------|
F-14-14-14-14-------------------------------------|
C-------------------------------------------------|
G-------------------------------------------------|
C-------------------------------------------------|

Guitar 1 & 3
D-------------------------------------------------|
A-------------------------------------------------|
F-------------------------------------------------|
C-0--0--0--0--0--0--0--0--0--0--0--0--0--0--10~~~-|
G-0--0--0--0--0--0--0--0--0--0--0--0--0--0--10~~~-|
C-0--0--0--0--0--0--0--0--0--0--0--0--0--0--10~~~-|

Guitar 2
D-------------------------------------14-14-14-14-|
A-------------11-11-11-11-13-13-13-13-------------|
F-14-14-14-14-------------------------------------|
C-------------------------------------------------|
G-------------------------------------------------|
C-------------------------------------------------|

Guitar 1 & 3
D-------------------------------------------------|
A-------------------------------------------------|
F-------------------------------------------------|
C-8--8--8--8--8--8--8--8--8--8--8--8--8--8--7~~~~-|
G-8--8--8--8--8--8--8--8--8--8--8--8--8--8--7~~~~-|
C-8--8--8--8--8--8--8--8--8--8--8--8--8--8--7~~~~-|

Guitar 2
D-------------------------------------14-14-14-14-|
A-------------11-11-11-11-13-13-13-13-------------|
F-14-14-14-14-------------------------------------|
C-------------------------------------------------|
G-------------------------------------------------|
C-------------------------------------------------|

Guitar 1 & 3
D-------------------------------------------------|
A-------------------------------------------------|
F-------------------------------------------------|
C-5--5--5--5--5--5--5--5--5--10-10-10-10-10-10-10-|
G-5--5--5--5--5--5--5--5--5--10-10-10-10-10-10-10-|
C-5--5--5--5--5--5--5--5--5--10-10-10-10-10-10-10-|

Guitar 2
D-------------------------14-14-14-14-16-16-16-16-|
A-15-15-15-15-13-13-13-13-------------------------|
F-------------------------------------------------|
C-------------------------------------------------|
G-------------------------------------------------|
C-------------------------------------------------|

Break Off

Guitar 1 & 3
D------------------------------------------------|
A------------------------------------------------|
F------------------------------------------------|
C-3--3--3--3--3--3--3--3--3--3--3--3--3--3--3--3-|
G-3--3--3--3--3--3--3--3--3--3--3--3--3--3--3--3-|
C-3--3--3--3--3--3--3--3--3--3--3--3--3--3--3--3-|

Guitar 2
D-------------------------------------------------|
A-------------------------------------13-13-13-13-|
F-15-15-15-15-14-14-14-14-15-15-15-15-------------|
C-------------------------------------------------|
G-------------------------------------------------|
C-------------------------------------------------|

Bridge 1

Guitar 1 & 3
D------------------------------------------------|
A------------------------------------------------|
F------------------------------------------------|
C-0--0--0--0--0--0--0--0--0--3--3--3--3--3--3--3-|
G-0--0--0--0--0--0--0--0--0--3--3--3--3--3--3--3-|
C-0--0--0--0--0--0--0--0--0--3--3--3--3--3--3--3-|

Guitar 2
D----------8~~~~--------------------8~~~~----------|
A--------------------------------------------------|
F-9~-10-9~--------9~-10----9~-10-9~-------9~-10----|
C-----------------------10----------------------10-|
G--------------------------------------------------|
C--------------------------------------------------|

Guitar 1 & 3
D------------------------------------------------|
A------------------------------------------------|
F------------------------------------------------|
C-7--7--7--7--7--7--7--7--7--8--8--8--8--8--8--8-|
G-7--7--7--7--7--7--7--7--7--8--8--8--8--8--8--8-|
C-7--7--7--7--7--7--7--7--7--8--8--8--8--8--8--8-|

Guitar 2
D----------8~~~~--------------------8~~~~----------|
A--------------------------------------------------|
F-9~-10-9~--------9~-10----9~-10-9~-------9~-10----|
C-----------------------10----------------------10-|
G--------------------------------------------------|
C--------------------------------------------------|

Verse 2

Guitar 1 & 3
D-----------------------------------------------|
A-----------------------------------------------|
F-----------------------------------------------|
C-3~~~~~~~~~~~~~~~~~~~~~~~~~~~~~~~~~~~~~~~~~~~~~
G-3~~~~~~~~~~~~~~~~~~~~~~~~~~~~~~~~~~~~~~~~~~~~~
C-3~~~~~~~~~~~~~~~~~~~~~~~~~~~~~~~~~~~~~~~~~~~~~

Guitar 2
D-----------3----------------------3--------------|
A-----6--------6-----6~~~----6--------6-----6~~~--|
F-5~~----5---------5-------5-----5--------5-------|
C-------------------------------------------------|
G-------------------------------------------------|
C-------------------------------------------------|

Guitar 1 & 3
D-----------------------------------------------|
A-----------------------------------------------|
F-----------------------------------------------|
C-----------------------------------------------|
G-----------------------------------------------|
C-----------------------------------------------|

Guitar 2
D-----------0----------------------0-------------|
A-----6--------6-----6~~~----6--------6-----6~~~-|
F-5------5--------5-------5-----5--------5-------|
C------------------------------------------------|
G------------------------------------------------|
C------------------------------------------------|

Guitar 2
D-----------3----------------------3-------------|
A-----6--------6-----6~~~----6--------6-----6~~~-|
F-5------5--------5-------5-----5--------5-------|
C------------------------------------------------|
G------------------------------------------------|
C------------------------------------------------|

Guitar 3
D-5~~~-5--5~~~~~~~~~----------------------------|
A-----------------------------------------------|
F-----------------------------------------------|
C-----------------------------------------------|
G-----------------------------------------------|
C-----------------------------------------------|

Guitar 1
D-----------------------------------------------|
A-----------------------------------------------|
F-----------------------------------------------|
C------------------------------------------x--x-|
G------------------------------------------x--x-|
C------------------------------------------x--x-|

Guitar 2
D-----------8----------------------8-------------|
A-----6--------6-----6~~~----6--------6-----6~~~-|
F-5------5--------5-------5-----5--------5-------|
C------------------------------------------------|
G------------------------------------------------|
C------------------------------------------------|

Guitar 3
D----------------------------------------------|
A-5~~~~~~~~~~~~~~~~~~~~~~~~~~~~~~~~~~~~~-------|
F----------------------------------------------|
C-----------------------------------------x--x-|
G-----------------------------------------x--x-|
C-----------------------------------------x--x-|

Pre Chorus

Guitar 1 & 3
D-----------------------------------------------|
A-----------------------------------------------|
F-----------------------------------------------|
C-0~~~~~~~~~~~~~~~~~~~~-10~~~~~~~~~~~~~~~~~~~~~~
G-0~~~~~~~~~~~~~~~~~~~~-10~~~~~~~~~~~~~~~~~~~~~~
C-0~~~~~~~~~~~~~~~~~~~~-10~~~~~~~~~~~~~~~~~~~~~~

Guitar 2
D-----------6----------------------8-------------|
A-----10-------10----10~~----10-------10----10~~-|
F-10~----10-------10------10----10-------10------|
C------------------------------------------------|
G------------------------------------------------|
C------------------------------------------------|

Guitar 1 & 3
D------------------------------------------------|
A------------------------------------------------|
F------------------------------------------------|
C-8~~~~~~~~~~~~~~~~~~-8~~~~~~~~~~~~x--10~~~~~~~~-|
G-8~~~~~~~~~~~~~~~~~~-8~~~~~~~~~~~-x--10~~~~~~~~-|
C-8~~~~~~~~~~~~~~~~~~-8~~~~~~~~~~~-x--10~~~~~~~~-|

Guitar 2
D----------3----------------------3--------------|
A----6--------6-----6~~~----6--------6-----6~~~--|
F-5-----5--------5-------5-----5--------5--------|
C------------------------------------------------|
G------------------------------------------------|
C------------------------------------------------|

Guitar 1 & 3
D-----------------------------------------------|
A-----------------------------------------------|
F-----------------------------------------------|
C-0~~~~~~~~~~~~~~~~~~~~-10~~~~~~~~~~~~~~~~~~~~~~
G-0~~~~~~~~~~~~~~~~~~~~-10~~~~~~~~~~~~~~~~~~~~~~
C-0~~~~~~~~~~~~~~~~~~~~-10~~~~~~~~~~~~~~~~~~~~~~

Guitar 2
D-----------6----------------------8-------------|
A-----10-------10----10~~----10-------10----10~~-|
F-10~----10-------10------10----10-------10------|
C------------------------------------------------|
G------------------------------------------------|
C------------------------------------------------|

Guitar 1 & 3
D------------------------------------------------|
A------------------------------------------------|
F------------------------------------------------|
C-8~~~~~~~~~-8--8--8--8--8--10-10-10-10-10-10-10-|
G-8~~~~~~~~~-8--8--8--8--8--10-10-10-10-10-10-10-|
C-8~~~~~~~~~-8--8--8--8--8--10-10-10-10-10-10-10-|

Guitar 2
D----------3----------------------3-------------|
A----6--------6-----6~~~----6--------6-----6~~~-|
F-5-----5--------5-------5-----5--------5-------|
C-----------------------------------------------|
G-----------------------------------------------|
C-----------------------------------------------|

Chorus 2

Guitar 1 & 3
D-------------------------------------------------|
A-------------------------------------------------|
F-------------------------------------------------|
C-3--3--3--3--3--3--3--3--3--3--3--3--3--3--2~~~~-|
G-3--3--3--3--3--3--3--3--3--3--3--3--3--3--2~~~~-|
C-3--3--3--3--3--3--3--3--3--3--3--3--3--3--2~~~~-|

Guitar 2
D-------------------------------------14-14-14-14-|
A-------------11-11-11-11-13-13-13-13-------------|
F-14-14-14-14-------------------------------------|
C-------------------------------------------------|
G-------------------------------------------------|
C-------------------------------------------------|

Guitar 1 & 3
D-------------------------------------------------|
A-------------------------------------------------|
F-------------------------------------------------|
C-0--0--0--0--0--0--0--0--0--0--0--0--0--0--10~~~-|
G-0--0--0--0--0--0--0--0--0--0--0--0--0--0--10~~~-|
C-0--0--0--0--0--0--0--0--0--0--0--0--0--0--10~~~-|

Guitar 2
D-------------------------------------14-14-14-14-|
A-------------11-11-11-11-13-13-13-13-------------|
F-14-14-14-14-------------------------------------|
C-------------------------------------------------|
G-------------------------------------------------|
C-------------------------------------------------|

Guitar 1 & 3
D-------------------------------------------------|
A-------------------------------------------------|
F-------------------------------------------------|
C-8--8--8--8--8--8--8--8--8--8--8--8--8--8--7~~~~-|
G-8--8--8--8--8--8--8--8--8--8--8--8--8--8--7~~~~-|
C-8--8--8--8--8--8--8--8--8--8--8--8--8--8--7~~~~-|

Guitar 2
D-------------------------------------14-14-14-14-|
A-------------11-11-11-11-13-13-13-13-------------|
F-14-14-14-14-------------------------------------|
C-------------------------------------------------|
G-------------------------------------------------|
C-------------------------------------------------|

Guitar 1 & 3
D-------------------------------------------------|
A-------------------------------------------------|
F-------------------------------------------------|
C-5--5--5--5--5--5--5--5--5--10-10-10-10-10-10-10-|
G-5--5--5--5--5--5--5--5--5--10-10-10-10-10-10-10-|
C-5--5--5--5--5--5--5--5--5--10-10-10-10-10-10-10-|

Guitar 2
D-------------------------14-14-14-14-16-16-16-16-|
A-15-15-15-15-13-13-13-13-------------------------|
F-------------------------------------------------|
C-------------------------------------------------|
G-------------------------------------------------|
C-------------------------------------------------|

Guitar 1 & 3
D-------------------------------------------------|
A-------------------------------------------------|
F-------------------------------------------------|
C-0--0--0--0--0--0--0--0--0--0--0--0--0--0--10~~~-|
G-0--0--0--0--0--0--0--0--0--0--0--0--0--0--10~~~-|
C-0--0--0--0--0--0--0--0--0--0--0--0--0--0--10~~~-|

Guitar 2
D-------------------------------------14-14-14-14-|
A-------------11-11-11-11-13-13-13-13-------------|
F-14-14-14-14-------------------------------------|
C-------------------------------------------------|
G-------------------------------------------------|
C-------------------------------------------------|

Guitar 1 & 3
D-------------------------------------------------|
A-------------------------------------------------|
F-------------------------------------------------|
C-8--8--8--8--8--8--8--8--8--8--8--8--8--8--10~~~-|
G-8--8--8--8--8--8--8--8--8--8--8--8--8--8--10~~~-|
C-8--8--8--8--8--8--8--8--8--8--8--8--8--8--10~~~-|

Guitar 2
D-------------------------16-16-16-16-18-18-18-18-|
A-15-15-15-15-13-13-13-13-------------------------|
F-------------------------------------------------|
C-------------------------------------------------|
G-------------------------------------------------|
C-------------------------------------------------|

Guitar 1 & 3
D------------------------------------------------|
A------------------------------------------------|
F------------------------------------------------|
C-3--3--3--3--3--3--3--3--3--3--3--3--3--3--3--3-|
G-3--3--3--3--3--3--3--3--3--3--3--3--3--3--3--3-|
C-3--3--3--3--3--3--3--3--3--3--3--3--3--3--3--3-|

Guitar 2
D-------------------------------------------------|
A-------------------------------------------------|
F-15-15-15-15-14-14-14-14-12-12-12-12-14-14-14-14-|
C-------------------------------------------------|
G-------------------------------------------------|
C-------------------------------------------------|

Guitar 1 & 3
D-------------------------------------------------|
A-------------------------------------------------|
F-------------------------------------------------|
C-10-10-10-10-10-10-10-10-10-10-10-10-10-10-10-10-|
G-10-10-10-10-10-10-10-10-10-10-10-10-10-10-10-10-|
C-10-10-10-10-10-10-10-10-10-10-10-10-10-10-10-10-|

Guitar 2
D-------------------------------------------------|
A-------------------------------------------------|
F-12-12-12-12-10-10-10-10-------------12-12-12-12-|
C-------------------------14-14-14-14-------------|
G-------------------------------------------------|
C-------------------------------------------------|

Break Off

Guitar 1 & 3
Guitar 1 & 3
D------------------------------------------------|
A------------------------------------------------|
F------------------------------------------------|
C-8--8--8--8--8--8--8--8--8--8--8--8--8--8--8--8-|
G-8--8--8--8--8--8--8--8--8--8--8--8--8--8--8--8-|
C-8--8--8--8--8--8--8--8--8--8--8--8--8--8--8--8-|

Guitar 2
D-14-14-14-14-------------------------------------|
A-------------------------------------13-13-13-13-|
F-------------12-12-12-12-14-14-14-14-------------|
C-------------------------------------------------|
G-------------------------------------------------|
C-------------------------------------------------|

Interlude (This part is most liking not 100% correct, but was the best I could do)

Guitar 1
D------------------------------------------------|
A------------------------------------------------|
F------------------------------------------------|
C-0~~~~~~~~~~-0~~~~~~~~~~-0~~~-0~~-0~-8--8--8--8-|
G-0~~~~~~~~~~-0~~~~~~~~~~-0~~~-0~~-0~-8--8--8--8-|
C-0~~~~~~~~~~-0~~~~~~~~~~-0~~~-0~~-0~-8--8--8--8-|

Guitar 2
D-------------------------------------------------|
A-10-10-10-10-10-10-10-10-10-10-10-10-10-10-10-10-|
F-------------------------------------------------|
C-------------------------------------------------|
G-------------------------------------------------|
C-------------------------------------------------|

Guitar 3
D-------------------------------------------------|
A-10~~~~~~~~~~~~~~~~~~~~~-8~~~~~~~~~~-13~~~~~~~~~-|
F-------------------------------------------------|
C-------------------------------------------------|
G-------------------------------------------------|
C-------------------------------------------------|

Guitar 1
D-------------------------------------------------|
A-------------------------------------------------|
F-------------------------------------------------|
C-0~~~~~~~~~~-0~~~~~~~~~~-0~~~-0~~-0~-10~~~~~~~~~-|
G-0~~~~~~~~~~-0~~~~~~~~~~-0~~~-0~~-0~-10~~~~~~~~~-|
C-0~~~~~~~~~~-0~~~~~~~~~~-0~~~-0~~-0~-10~~~~~~~~~-|

Guitar 2
D-------------------------------------------------|
A-10-10-10-10-10-10-10-10-10-10-10-10-13~~~~~~~~~-|
F-------------------------------------------------|
C-------------------------------------------------|
G-------------------------------------------------|
C-------------------------------------------------|

Guitar 3
D-------------------------------------------------|
A-10~~~~~~~~~~~~~~~~~~~~~-8~~~~~~~~~~-13~~~~~~~~~-|
F-------------------------------------------------|
C-------------------------------------------------|
G-------------------------------------------------|
C-------------------------------------------------|

Guitar 1
D------------------------------------------------|
A------------------------------------------------|
F------------------------------------------------|
C-8~~~~~~~~~~-8~~~~~~~~~~-8~~~-8~~-8~-8--8--8--8-|
G-8~~~~~~~~~~-8~~~~~~~~~~-8~~~-8~~-8~-8--8--8--8-|
C-8~~~~~~~~~~-8~~~~~~~~~~-8~~~-8~~-8~-8--8--8--8-|

Guitar 2
D-------------------------------------------------|
A-11-11-11-11-11-11-11-11-11-11-11-11-11-11-11-11-|
F-------------------------------------------------|
C-------------------------------------------------|
G-------------------------------------------------|
C-------------------------------------------------|

Guitar 3
D------------------------------------------------
A-11~~~~~~~~~~~~~~~~~~~~~~~~~~~~~~~~~-10~~~~~~~~~
F------------------------------------------------|
C------------------------------------------------|
G------------------------------------------------|
C------------------------------------------------|

Guitar 1
D-------------------------------------------------|
A-------------------------------------------------|
F-------------------------------------------------|
C-8~~~~~~~~~~-8~~~~~~~~~~-8~~~-8~~-8~-10~~~~~~~~~-|
G-8~~~~~~~~~~-8~~~~~~~~~~-8~~~-8~~-8~-10~~~~~~~~~-|
C-8~~~~~~~~~~-8~~~~~~~~~~-8~~~-8~~-8~-10~~~~~~~~~-|

Guitar 2
D-------------------------------------------------|
A-11-11-11-11-11-11-11-11-11-11-11-11-13~~~~~~~~~-|
F-------------------------------------------------|
C-------------------------------------------------|
G-------------------------------------------------|
C-------------------------------------------------|

Guitar 3
D------------------------------------------------
A-11~~~~~~~~~~~~~~~~~~~~~~~~~~~~~~~~~-13~~~~~~~~~
F------------------------------------------------|
C------------------------------------------------|
G------------------------------------------------|
C------------------------------------------------|

Guitar 1
D------------------------------------------------|
A------------------------------------------------|
F------------------------------------------------|
C-0~~~~~~~~~~-0~~~~~~~~~~-0~~~-0~~-0~-8--8--8--8-|
G-0~~~~~~~~~~-0~~~~~~~~~~-0~~~-0~~-0~-8--8--8--8-|
C-0~~~~~~~~~~-0~~~~~~~~~~-0~~~-0~~-0~-8--8--8--8-|

Guitar 2
D-------------------------------------------------|
A-10-10-10-10-10-10-10-10-10-10-10-10-10-10-10-10-|
F-------------------------------------------------|
C-------------------------------------------------|
G-------------------------------------------------|
C-------------------------------------------------|

Guitar 3
D-------------------------------------------------|
A-10~~~~~~~~~~~~~~~~~~~~~-8~~~~~~~~~~-13~~~~~~~~~-|
F-------------------------------------------------|
C-------------------------------------------------|
G-------------------------------------------------|
C-------------------------------------------------|

Guitar 1
D-------------------------------------------------|
A-------------------------------------------------|
F-------------------------------------------------|
C-0~~~~~~~~~~-0~~~~~~~~~~-0~~~-0~~-0~-10~~~~~~~~~-|
G-0~~~~~~~~~~-0~~~~~~~~~~-0~~~-0~~-0~-10~~~~~~~~~-|
C-0~~~~~~~~~~-0~~~~~~~~~~-0~~~-0~~-0~-10~~~~~~~~~-|

Guitar 2
D-------------------------------------------------|
A-10-10-10-10-10-10-10-10-10-10-10-10-13~~~~~~~~~-|
F-------------------------------------------------|
C-------------------------------------------------|
G-------------------------------------------------|
C-------------------------------------------------|

Guitar 3
D-------------------------------------------------|
A-10~~~~~~~~~~~~~~~~~~~~~-8~~~~~~~~~~-13~~~~~~~~~-|
F-------------------------------------------------|
C-------------------------------------------------|
G-------------------------------------------------|
C-------------------------------------------------|

Guitar 1
D-------------------------------------------------|
A-------------------------------------------------|
F-------------------------------------------------|
C-8--8--8--8--8--8--8--8--8--8--8--8--8--10-10-10-|
G-8--8--8--8--8--8--8--8--8--8--8--8--8--10-10-10-|
C-8--8--8--8--8--8--8--8--8--8--8--8--8--8--8--8--|

Guitar 2
D-------------------------------------------------|
A-11-11-11-11-11-11-11-11-11-11-11-11-11-11-11-11-|
F-------------------------------------------------|
C-------------------------------------------------|
G-------------------------------------------------|
C-------------------------------------------------|

Guitar 3
D------------------------------------------------
A-11~~~~~~~~~~~~~~~~~~~~~~~~~~~~~~~~~-10~~~~~~~~~
F------------------------------------------------|
C------------------------------------------------|
G------------------------------------------------|
C------------------------------------------------|

Guitar 1
D-------------------------------------------------|
A-------------------------------------------------|
F-------------------------------------------------|
C-8--8--8--8--8--8--8--8--8--8--8--8--10-10-10-10-|
G-8--8--8--8--8--8--8--8--8--8--8--8--10-10-10-10-|
C-8--8--8--8--8--8--8--8--8--8--8--8--10-10-10-10-|

Guitar 2
D-------------------------------------------------|
A-11-11-11-11-11-11-11-11-11-11-11-11-13~~~~~~~~~-|
F-------------------------------------------------|
C-------------------------------------------------|
G-------------------------------------------------|
C-------------------------------------------------|

Guitar 3
D------------------------------------------------
A-11~~~~~~~~~~~~~~~~~~~~~~~~~~~~~~~~~-13~~~~~~~~~
F------------------------------------------------|
C------------------------------------------------|
G------------------------------------------------|
C------------------------------------------------|

Bridge 2

Guitar 1 & 3
D-----------------------------------------------|
A-----------------------------------------------|
F-----------------------------------------------|
C-3~~~~~~~~~~~~~~~~~~~~~~~~~~~~~~~~~~~~~~~~~~~~~
G-3~~~~~~~~~~~~~~~~~~~~~~~~~~~~~~~~~~~~~~~~~~~~~
C-3~~~~~~~~~~~~~~~~~~~~~~~~~~~~~~~~~~~~~~~~~~~~~

Guitar 2
D----------8----------------------3-------------|
A----6--------6-----6~~~----6--------6-----6~~~-|
F-5-----5--------5-------5-----5--------5-------|
C-----------------------------------------------|
G-----------------------------------------------|
C-----------------------------------------------|

Guitar 1 & 3
D----------------------------------------------|
A----------------------------------------------|
F----------------------------------------------|
C-0~~~~~~~~~~~~~~~~~~~~~~~~~~~~~~~~~~~~~~~~~~~~
G-0~~~~~~~~~~~~~~~~~~~~~~~~~~~~~~~~~~~~~~~~~~~~
C-0~~~~~~~~~~~~~~~~~~~~~~~~~~~~~~~~~~~~~~~~~~~~

Guitar 2
D----------8----------------------3-------------|
A----6--------6-----6~~~----6--------6-----6~~~-|
F-5-----5--------5-------5-----5--------5-------|
C-----------------------------------------------|
G-----------------------------------------------|
C-----------------------------------------------|

Guitar 1 & 3
D----------------------------------------------|
A----------------------------------------------|
F----------------------------------------------|
C-8~~~~~~~~~~~~~~~~~~~~~~~~~~~~~~~~~~~~~~~~~~~~
G-8~~~~~~~~~~~~~~~~~~~~~~~~~~~~~~~~~~~~~~~~~~~~
C-8~~~~~~~~~~~~~~~~~~~~~~~~~~~~~~~~~~~~~~~~~~~~

Guitar 2
D----------8----------------------3-------------|
A----6--------6-----6~~~----6--------6-----6~~~-|
F-5-----5--------5-------5-----5--------5-------|
C-----------------------------------------------|
G-----------------------------------------------|
C-----------------------------------------------|

Guitar 1 & 3
D----------------------------------------------|
A----------------------------------------------|
F----------------------------------------------|
C-10~~~~~~~~~~~~~~~~~~~~~~~~~~~~~~~-x--x-------|
G-10~~~~~~~~~~~~~~~~~~~~~~~~~~~~~~~-x--x--10\--|
C-10~~~~~~~~~~~~~~~~~~~~~~~~~~~~~~~-x--x-------|

Guitar 2
D------0------------------3~~~~~~~~~~~~~~------|
A---------6~~~----6~~~~~~----------------------|
F-5~~~---------5-------------------------------|
C----------------------------------------------|
G-----------------------------------------10\--|
C----------------------------------------------|

Chorus 2

Guitar 1 & 3
D-------------------------------------------------|
A-------------------------------------------------|
F-------------------------------------------------|
C-3--3--3--3--3--3--3--3--3--3--3--3--3--3--2~~~~-|
G-3--3--3--3--3--3--3--3--3--3--3--3--3--3--2~~~~-|
C-3--3--3--3--3--3--3--3--3--3--3--3--3--3--2~~~~-|

Guitar 2
D-------------------------------------14-14-14-14-|
A-------------11-11-11-11-13-13-13-13-------------|
F-14-14-14-14-------------------------------------|
C-------------------------------------------------|
G-------------------------------------------------|
C-------------------------------------------------|

Guitar 1 & 3
D-------------------------------------------------|
A-------------------------------------------------|
F-------------------------------------------------|
C-0--0--0--0--0--0--0--0--0--0--0--0--0--0--10~~~-|
G-0--0--0--0--0--0--0--0--0--0--0--0--0--0--10~~~-|
C-0--0--0--0--0--0--0--0--0--0--0--0--0--0--10~~~-|

Guitar 2
D-------------------------------------14-14-14-14-|
A-------------11-11-11-11-13-13-13-13-------------|
F-14-14-14-14-------------------------------------|
C-------------------------------------------------|
G-------------------------------------------------|
C-------------------------------------------------|

Guitar 1 & 3
D-------------------------------------------------|
A-------------------------------------------------|
F-------------------------------------------------|
C-8--8--8--8--8--8--8--8--8--8--8--8--8--8--7~~~~-|
G-8--8--8--8--8--8--8--8--8--8--8--8--8--8--7~~~~-|
C-8--8--8--8--8--8--8--8--8--8--8--8--8--8--7~~~~-|

Guitar 2
D-------------------------------------14-14-14-14-|
A-------------11-11-11-11-13-13-13-13-------------|
F-14-14-14-14-------------------------------------|
C-------------------------------------------------|
G-------------------------------------------------|
C-------------------------------------------------|

Guitar 1 & 3
D-------------------------------------------------|
A-------------------------------------------------|
F-------------------------------------------------|
C-5--5--5--5--5--5--5--5--5--10-10-10-10-10-10-10-|
G-5--5--5--5--5--5--5--5--5--10-10-10-10-10-10-10-|
C-5--5--5--5--5--5--5--5--5--10-10-10-10-10-10-10-|

Guitar 2
D-------------------------14-14-14-14-16-16-16-16-|
A-15-15-15-15-13-13-13-13-------------------------|
F-------------------------------------------------|
C-------------------------------------------------|
G-------------------------------------------------|
C-------------------------------------------------|

Guitar 1 & 3
D-------------------------------------------------|
A-------------------------------------------------|
F-------------------------------------------------|
C-0--0--0--0--0--0--0--0--0--0--0--0--0--0--10~~~-|
G-0--0--0--0--0--0--0--0--0--0--0--0--0--0--10~~~-|
C-0--0--0--0--0--0--0--0--0--0--0--0--0--0--10~~~-|

Guitar 2
D-------------------------------------14-14-14-14-|
A-------------11-11-11-11-13-13-13-13-------------|
F-14-14-14-14-------------------------------------|
C-------------------------------------------------|
G-------------------------------------------------|
C-------------------------------------------------|

Guitar 1 & 3
D-------------------------------------------------|
A-------------------------------------------------|
F-------------------------------------------------|
C-8--8--8--8--8--8--8--8--8--8--8--8--8--8--10~~~-|
G-8--8--8--8--8--8--8--8--8--8--8--8--8--8--10~~~-|
C-8--8--8--8--8--8--8--8--8--8--8--8--8--8--10~~~-|

Guitar 2
D-------------------------16-16-16-16-18-18-18-18-|
A-15-15-15-15-13-13-13-13-------------------------|
F-------------------------------------------------|
C-------------------------------------------------|
G-------------------------------------------------|
C-------------------------------------------------|

Guitar 1 & 3
D------------------------------------------------|
A------------------------------------------------|
F------------------------------------------------|
C-3--3--3--3--3--3--3--3--3--3--3--3--3--3--3--3-|
G-3--3--3--3--3--3--3--3--3--3--3--3--3--3--3--3-|
C-3--3--3--3--3--3--3--3--3--3--3--3--3--3--3--3-|

Guitar 2
D-------------------------------------------------|
A-------------------------------------------------|
F-15-15-15-15-14-14-14-14-12-12-12-12-14-14-14-14-|
C-------------------------------------------------|
G-------------------------------------------------|
C-------------------------------------------------|

Guitar 1 & 3
D-------------------------------------------------|
A-------------------------------------------------|
F-------------------------------------------------|
C-10-10-10-10-10-10-10-10-10-10-10-10-10-10-10-10-|
G-10-10-10-10-10-10-10-10-10-10-10-10-10-10-10-10-|
C-10-10-10-10-10-10-10-10-10-10-10-10-10-10-10-10-|

Guitar 2
D-------------------------------------------------|
A-------------------------------------------------|
F-12-12-12-12-10-10-10-10-------------12-12-12-12-|
C-------------------------14-14-14-14-------------|
G-------------------------------------------------|
C-------------------------------------------------|

Outro

Guitar 1 & 3
D------------------------------------------------|
A------------------------------------------------|
F------------------------------------------------|
C-8--8--8--8--8--8--8--8--8--8--8--8--8--8--8--8-|
G-8--8--8--8--8--8--8--8--8--8--8--8--8--8--8--8-|
C-8--8--8--8--8--8--8--8--8--8--8--8--8--8--8--8-|

Guitar 2
D-14-14-14-14-------------------------------------|
A-------------------------------------13-13-13-13-|
F-------------12-12-12-12-14-14-14-14-------------|
C-------------------------------------------------|
G-------------------------------------------------|
C-------------------------------------------------|

Bridge 1

Guitar 1 & 3
D------------------------------------------------|
A------------------------------------------------|
F------------------------------------------------|
C-0--0--0--0--0--0--0--0--0--3--3--3--3--3--3--3-|
G-0--0--0--0--0--0--0--0--0--3--3--3--3--3--3--3-|
C-0--0--0--0--0--0--0--0--0--3--3--3--3--3--3--3-|

Guitar 2
D----------8~~~~--------------------8~~~~----------|
A--------------------------------------------------|
F-9~-10-9~--------9~-10----9~-10-9~-------9~-10----|
C-----------------------10----------------------10-|
G--------------------------------------------------|
C--------------------------------------------------|

Guitar 1 & 3
D------------------------------------------------|
A------------------------------------------------|
F------------------------------------------------|
C-7--7--7--7--7--7--7--7--7--8--8--8--8--8--8--8-|
G-7--7--7--7--7--7--7--7--7--8--8--8--8--8--8--8-|
C-7--7--7--7--7--7--7--7--7--8--8--8--8--8--8--8-|

Guitar 2
D----------8~~~~--------------------8~~~~----------|
A--------------------------------------------------|
F-9~-10-9~--------9~-10----9~-10-9~-------9~-10----|
C-----------------------10----------------------10-|
G--------------------------------------------------|
C--------------------------------------------------|

Guitar 1 & 3
D-------------------------------------------------|
A-------------------------------------------------|
F-------------------------------------------------|
C-3~~~~~~~~~~~~~~~~~~~~~~~~~~~~~~~~~~~~~~~~~~~~~~~
G-3~~~~~~~~~~~~~~~~~~~~~~~~~~~~~~~~~~~~~~~~~~~~~~~
C-3~~~~~~~~~~~~~~~~~~~~~~~~~~~~~~~~~~~~~~~~~~~~~~~

Guitar 2
D-------------------------------------------------|
A-------------------------------------------------|
F-10~~~~~~~~~~~~~~~~~~~~~~~~~~~~~~~~~~~~~~~~~~~~~~
C-------------------------------------------------|
G-------------------------------------------------|
C-------------------------------------------------|

Tab Legend
h  -  hammer-on
p  -  pull-off
/  -  slide up
\  -  slide down
ps/-  pickslide up
ps\-  pickslide down
~  -  let ring
pm.-  palm mute
b  -  bend
r  -  return from bend
*  -  harmonic
x  -  dead note

There you go, this tab was a hassle for me in the chorus, and I might need to redo it
time later. If you want me to do any other tabs that.. 1. Has not been fully made or.. 2.
there is NO tab for it, I would be glad to work on it. Thanks, oh and one last thing... 
OUT!!!!
comments
print report bad tab
I want to post or [tab]
guest
You may want to rate the tab now too:
select rating
Please do not post tabs as comments. Select "correction" instead!