Oops, an error
Loading. Please wait.

Dear Agony Tab

ver3
ver3

Album

Whole song

Interactive

More versions @911Tabs.com
19,553 views 114 this week
3 commentsread comments
1 2 3 4 5
excellent!
x 7
Autoscroll
+/-
esc
set tempo
stop
Contributor
Difficulty
Tuning
advanced
C G C F A D
WARNING: You are trying to view
                                    content from Ultimate-Guitar.com
                                    in an unauthorized application,
                                    which is prohibited.

                                    Please use an official Ultimate
                                    Guitar Tabs application for iPhone,
                                    iPad or Android to access legitimate
                                    chords, guitar, bass, and drum tabs
                                    from Ultimate-Guitar.com database.

                                    Type "ultimate guitar tabs" in Apple
                                    App Store's or Android Market's
                                    search to find the application.
Dear Agony
Breaking Benjamin
Dear Agony
Drop C- CGCFAD


-Intro-
Aaron
D|-0---0-8~-0------0---0-8~-0------|
A|---6--------6------6--------6----|
F|--------------5~--------------5~-|
C|---------------------------------|
G|---------------------------------|
C|---------------------------------|

Ben
D|-----------------------------------------------------------------|
A|-----------------------------------------------------------------|
F|-----------------------------------------------------------------|
C|-0-0-0-0-0-0-0-0-0-0-0-0-0-0-0-0-3-3-3-3-3-3-3-3-3-3-3-3-3-3-3-3-|
G|-0-0-0-0-0-0-0-0-0-0-0-0-0-0-0-0-3-3-3-3-3-3-3-3-3-3-3-3-3-3-3-3-|
C|-0-0-0-0-0-0-0-0-0-0-0-0-0-0-0-0-3-3-3-3-3-3-3-3-3-3-3-3-3-3-3-3-|
Aaron
D|-0---0-8~-0------0---0-8~-0------0---0-8~-0------0---0-8~-0------|
A|---6--------6------6--------6------6--------6------6--------6----|
F|--------------5~--------------5~--------------5~--------------5~-|
C|-----------------------------------------------------------------|
G|-----------------------------------------------------------------|
C|-----------------------------------------------------------------|

Ben
D|-----------------------------------------------------------------|
A|-----------------------------------------------------------------|
F|-2-2-2-2-2-2-2-2-2-2-2-2-2-2-2-2-5~~-3~~~---5-3~~~-3-3-3-3-2-2-2-|
C|-2-2-2-2-2-2-2-2-2-2-2-2-2-2-2-2-5~~-3~~~-0-5-3~~~-3-3-3-3-2-2-2-|
G|-0-0-0-0-0-0-0-0-0-0-0-0-0-0-0-0-3~~-1~~~-0-3-1~~~-1-1-1-1-0-0-0-|
C|------------------------------------------0----------------------|
Aaron
D|-0---0-8~-0------0---0-8~-0------0---0-8~-0------0---0-8~-0------|
A|---6--------6------6--------6------6--------6------6--------6----|
F|--------------5~--------------5~--------------5~--------------5~-|
C|-----------------------------------------------------------------|
G|-----------------------------------------------------------------|
C|-----------------------------------------------------------------|


-Verse-
Ben
D|-------------------------------------------------------|
A|-------------------------------------------------------|
F|-------------------------------------------------------|
C|-3~~~~~~~~~~~~~~~~~~~~~~~~~~~--------------------------|
G|-3~~~~~~~~~~~~~~~~~~~~~~~~~~~--------------------------|
C|-3~~~~~~~~~~~~~~~~~~~~~~~~~~~--------------------------|
Aaron
D|-------3-------------3-------------0-------------0-----|
A|---6-----6---6---6-----6---6---6-----6---6---6-----6---|
F|-5---5-----5---5---5-----5---5---5-----5---5---5-----5-|
C|-------------------------------------------------------|
G|-------------------------------------------------------|
C|-------------------------------------------------------|
"I have nothing left to give, I have found a perfect end...

Aaron
D|-------3-------------3-------------8-------------8-----|
A|---6-----6---6---6-----6---6---6-----6---6---6-----6---|
F|-5---5-----5---5---5-----5---5---5-----5---5---5-----5-|
C|-------------------------------------------------------|
G|-------------------------------------------------------|
C|-------------------------------------------------------|
...You were made to make it hurt, disappear into the dirt...

Aaron
D|-------3-------------3-------------0-------------0-----|
A|---6-----6---6---6-----6---6---6-----6---6---6-----6---|
F|-5---5-----5---5---5-----5---5---5-----5---5---5-----5-|
C|-------------------------------------------------------|
G|-------------------------------------------------------|
C|-------------------------------------------------------|
...Carry me into heavens arms, light the way and let me go...

Aaron
D|-------3-------------3-------------8-------------8-----|
A|---6-----6---6---6-----6---6---6-----6---6---6-----6---|
F|-5---5-----5---5---5-----5---5---5-----5---5---5-----5-|
C|-------------------------------------------------------|
G|-------------------------------------------------------|
C|-------------------------------------------------------|
...Take the time to take my breath, I will end where I beg-


-Pre Chorus-
Ben
D|----------------------------------------------------------------|
A|----------------------------------------------------------------|
F|---------------------5~~~~~~~~~~~~~-3~~~~~~~~~~~~-3~~~~~~~---5~~|
C|-x-x-0~~~~~~~~~~~~~~-5~~~~~~~~~~~~~-3~~~~~~~~~~~~-3~~~~~~~-x-5~~|
G|-x-x-0~~~~~~~~~~~~~~-3~~~~~~~~~~~~~-1~~~~~~~~~~~~-1~~~~~~~-x-3~~|
C|-x-x-0~~~~~~~~~~~~~~---------------------------------------x----|
Aaron
D|------------6--------------8--------------3-------------3-------|
A|-------10-----10--10--10-----10--10---6-----6---6---6-----6---6-|
F|-----10--10-----10--10--10-----10---5---5-----5---5---5-----5---|
C|-x-x------------------------------------------------------------|
G|-x-x------------------------------------------------------------|
C|-x-x------------------------------------------------------------|
-an... And I will find the enemy within...

Ben
D|------------------------------------------------------------|
A|------------------------------------------------------------|
F|-----------------5~~~~~~~~~~~~~-3~~~~~~-3-3-3-3-5-5-5-5-5-5-|
C|-0~~~~~~~~~~~~~~-5~~~~~~~~~~~~~-3~~~~~~-3-3-3-3-5-5-5-5-5-5-|
G|-0~~~~~~~~~~~~~~-3~~~~~~~~~~~~~-1~~~~~~-1-1-1-1-3-3-3-3-3-3-|
C|-0~~~~~~~~~~~~~~--------------------------------------------|
Aaron
D|--------6--------------8--------------3-------------3-------|
A|---10-----10--10--10-----10--10---6-----6---6---6-----6---6-|
F|-10--10-----10--10--10-----10---5---5-----5---5---5-----5---|
C|------------------------------------------------------------|
G|------------------------------------------------------------|
C|------------------------------------------------------------|
...'Cause I can feel it crawl beneath my skiiin"


-Chorus-
Ben
D|--------------------------------------------------------------|
A|--------------------------------------------------------------|
F|------------------------------------------------------------5~|
C|-3-3-3-3-3-3-3-3-3-3-3-3-3-3-2~-0-0-0-0-0-0-0-0-0-0-0-0-0-0-5~|
G|-3-3-3-3-3-3-3-3-3-3-3-3-3-3-2~-0-0-0-0-0-0-0-0-0-0-0-0-0-0-3~|
C|-3-3-3-3-3-3-3-3-3-3-3-3-3-3-2~-0-0-0-0-0-0-0-0-0-0-0-0-0-0---|
Aaron
D||--------------------------------------14-14-14-14--||
A||o-10-10-10-10-11-11-11-11-13-13-13-13-------------o||
F||---------------------------------------------------||
C||---------------------------------------------------||
G||o-------------------------------------------------o||
C||---------------------------------------------------||
"Dear Agonyyyyy, just let go of meeee, suff-

Ben
D|----------------------------------------------------------------------------------|
A|----------------------------------------------------------------------------------|
F|-3-3-3-3-3-3-3-3-3-3-3-3-3-3-3-2~-------------------------5-5-5-5-5-5-5-5-5-5-5-5-|
C|-3-3-3-3-3-3-3-3-3-3-3-3-3-3-3-2~-5-5-5-5-5-5-5-5-5-5-5-5-5-5-5-5-5-5-5-5-5-5-5-5-|
G|-1-1-1-1-1-1-1-1-1-1-1-1-1-1-1-0~-5-5-5-5-5-5-5-5-5-5-5-5-3-3-3-3-3-3-3-3-3-3-3-3-|
C|----------------------------------5-5-5-5-5-5-5-5-5-5-5-5-------------------------|
Aaron
D|------------------------------------14-14-14-14-------------------------14-14-14-14-16-16-16-16|
A|10-10-10-10-11-11-11-11-13-13-13-13-------------15-15-15-15-13-13-13-13------------------------|
F|-----------------------------------------------------------------------------------------------|
C|-----------------------------------------------------------------------------------------------|
G|-----------------------------------------------------------------------------------------------|
C|-----------------------------------------------------------------------------------------------|
...-er slowlyyyy, is this the way it's gotta beeee?

Ben
D|---------------------------------|
A|---------------------------------|
F|---------------------------------|
C|-3-3-3-3-3-3-3-3-3-3-3-3-3-3-3-3-|
G|-3-3-3-3-3-3-3-3-3-3-3-3-3-3-3-3-|
C|-3-3-3-3-3-3-3-3-3-3-3-3-3-3-3-3-|
Aaron
D|-------------------------------------14-14-14-14-|
A|-10-10-10-10-11-11-11-11-13-13-13-13-------------|
F|-------------------------------------------------|
C|-------------------------------------------------|
G|-------------------------------------------------|
C|-------------------------------------------------|
...Dear Agonyyyyy"

Ben
D|-----------------------------------------------------------------|
A|-----------------------------------------------------------------|
F|---------------------------------2-2-2-2-2-2-2-2-3-3-3-3-3-3-3-3-|
C|-0-0-0-0-0-0-0-0-3-3-3-3-3-3-3-3-2-2-2-2-2-2-2-2-3-3-3-3-3-3-3-3-|
G|-0-0-0-0-0-0-0-0-3-3-3-3-3-3-3-3-0-0-0-0-0-0-0-0-1-1-1-1-1-1-1-1-|
C|-0-0-0-0-0-0-0-0-3-3-3-3-3-3-3-3---------------------------------|
Aaron
D|-0---0-8~-0------0---0-8~-0------0---0-8~-0------0---0-8~-0------|
A|---6--------6------6--------6------6--------6------6--------6----|
F|--------------5~--------------5~--------------5~--------------5~-|
C|-----------------------------------------------------------------|
G|-----------------------------------------------------------------|
C|-----------------------------------------------------------------|


-Verse-
Ben
D|-------------------------------------------------------|
A|-------------------------------------------------------|
F|-------------------------------------------------------|
C|-3~~~~~~~~~~~~~~~~~~~~~~~~~~~--------------------------|
G|-3~~~~~~~~~~~~~~~~~~~~~~~~~~~--------------------------|
C|-3~~~~~~~~~~~~~~~~~~~~~~~~~~~--------------------------|
Aaron
D|-------3-------------3-------------0-------------0-----|
A|---6-----6---6---6-----6---6---6-----6---6---6-----6---|
F|-5---5-----5---5---5-----5---5---5-----5---5---5-----5-|
C|-------------------------------------------------------|
G|-------------------------------------------------------|
C|-------------------------------------------------------|
"Suddenly the lights go out, let forever drag me down...

Aaron
D|-------3-------------3-------------8-------------8-----|
A|---6-----6---6---6-----6---6---6-----6---6---6-----6---|
F|-5---5-----5---5---5-----5---5---5-----5---5---5-----5-|
C|-------------------------------------------------------|
G|-------------------------------------------------------|
C|-------------------------------------------------------|
...I will fight for one last breath, I will fight until the e-


-Pre Chorus-
Ben
D|----------------------------------------------------------------|
A|----------------------------------------------------------------|
F|---------------------5~~~~~~~~~~~~~-3~~~~~~~~~~~~-3~~~~~~~---5~~|
C|-x-x-0~~~~~~~~~~~~~~-5~~~~~~~~~~~~~-3~~~~~~~~~~~~-3~~~~~~~-x-5~~|
G|-x-x-0~~~~~~~~~~~~~~-3~~~~~~~~~~~~~-1~~~~~~~~~~~~-1~~~~~~~-x-3~~|
C|-x-x-0~~~~~~~~~~~~~~---------------------------------------x----|
Aaron
D|------------6--------------8--------------3-------------3-------|
A|-------10-----10--10--10-----10--10---6-----6---6---6-----6---6-|
F|-----10--10-----10--10--10-----10---5---5-----5---5---5-----5---|
C|-x-x------------------------------------------------------------|
G|-x-x------------------------------------------------------------|
C|-x-x------------------------------------------------------------|
-nd... And I will find the enemy within...

Ben
D|------------------------------------------------------------|
A|------------------------------------------------------------|
F|-----------------5~~~~~~~~~~~~~-3~~~~~~-3-3-3-3-5-5-5-5-5-5-|
C|-0~~~~~~~~~~~~~~-5~~~~~~~~~~~~~-3~~~~~~-3-3-3-3-5-5-5-5-5-5-|
G|-0~~~~~~~~~~~~~~-3~~~~~~~~~~~~~-1~~~~~~-1-1-1-1-3-3-3-3-3-3-|
C|-0~~~~~~~~~~~~~~--------------------------------------------|
Aaron
D|--------6--------------8--------------3-------------3-------|
A|---10-----10--10--10-----10--10---6-----6---6---6-----6---6-|
F|-10--10-----10--10--10-----10---5---5-----5---5---5-----5---|
C|------------------------------------------------------------|
G|------------------------------------------------------------|
C|------------------------------------------------------------|
...'Cause I can feel it crawl beneath my skiiin"


-Chorus-
Ben
D|--------------------------------------------------------------|
A|--------------------------------------------------------------|
F|------------------------------------------------------------5~|
C|-3-3-3-3-3-3-3-3-3-3-3-3-3-3-2~-0-0-0-0-0-0-0-0-0-0-0-0-0-0-5~|
G|-3-3-3-3-3-3-3-3-3-3-3-3-3-3-2~-0-0-0-0-0-0-0-0-0-0-0-0-0-0-3~|
C|-3-3-3-3-3-3-3-3-3-3-3-3-3-3-2~-0-0-0-0-0-0-0-0-0-0-0-0-0-0---|
Aaron
D||--------------------------------------14-14-14-14--||
A||o-10-10-10-10-11-11-11-11-13-13-13-13-------------o||
F||---------------------------------------------------||
C||---------------------------------------------------||
G||o-------------------------------------------------o||
C||---------------------------------------------------||
"Dear Agonyyyyy, just let go of meeee, suff-

Ben
D|----------------------------------------------------------------------------------|
A|----------------------------------------------------------------------------------|
F|-3-3-3-3-3-3-3-3-3-3-3-3-3-3-3-2~-------------------------5-5-5-5-5-5-5-5-5-5-5-5-|
C|-3-3-3-3-3-3-3-3-3-3-3-3-3-3-3-2~-5-5-5-5-5-5-5-5-5-5-5-5-5-5-5-5-5-5-5-5-5-5-5-5-|
G|-1-1-1-1-1-1-1-1-1-1-1-1-1-1-1-0~-5-5-5-5-5-5-5-5-5-5-5-5-3-3-3-3-3-3-3-3-3-3-3-3-|
C|----------------------------------5-5-5-5-5-5-5-5-5-5-5-5-------------------------|
Aaron
D|------------------------------------14-14-14-14-------------------------14-14-14-14-16-16-16-16|
A|10-10-10-10-11-11-11-11-13-13-13-13-------------15-15-15-15-13-13-13-13------------------------|
F|-----------------------------------------------------------------------------------------------|
C|-----------------------------------------------------------------------------------------------|
G|-----------------------------------------------------------------------------------------------|
C|-----------------------------------------------------------------------------------------------|
...-er slowlyyyy, is this the way it's gotta beeee?

Ben
D|-----------------------------------------------------------------|
A|-----------------------------------------------------------------|
F|-----------------------------5~-3-3-3-3-3-3-3-3-3-3-3-3-3-3-3-5~-|
C|-0-0-0-0-0-0-0-0-0-0-0-0-0-0-5~-3-3-3-3-3-3-3-3-3-3-3-3-3-3-3-5~-|
G|-0-0-0-0-0-0-0-0-0-0-0-0-0-0-3~-1-1-1-1-1-1-1-1-1-1-1-1-1-1-1-3~-|
C|-0-0-0-0-0-0-0-0-0-0-0-0-0-0-------------------------------------|
Aaron
D|------------------------------------14-14-14-14-------------------------16-16-16-16-18-18-18-18|
A|10-10-10-10-11-11-11-11-13-13-13-13-------------15-15-15-15-13-13-13-13------------------------|
F|-----------------------------------------------------------------------------------------------|
C|-----------------------------------------------------------------------------------------------|
G|-----------------------------------------------------------------------------------------------|
C|-----------------------------------------------------------------------------------------------|
...Don't bury meee, faceless enemyyyy...

Ben
D|-----------------------------------------------------------------|
A|-----------------------------------------------------------------|
F|---------------------------------5-5-5-5-5-5-5-5-5-5-5-5-5-5-5-5-|
C|-3-3-3-3-3-3-3-3-3-3-3-3-3-3-3-3-5-5-5-5-5-5-5-5-5-5-5-5-5-5-5-5-|
G|-3-3-3-3-3-3-3-3-3-3-3-3-3-3-3-3-3-3-3-3-3-3-3-3-3-3-3-3-3-3-3-3-|
C|-3-3-3-3-3-3-3-3-3-3-3-3-3-3-3-3---------------------------------|
Aaron
D|-----------------------------------------------------------------------------|
A|-11-11-11-11-10-10-10-10-8-8-8-8-10-10-10-10-8-8-8-8-6-6-6-6-5-5-5-5-8-8-8-8-|
F|-----------------------------------------------------------------------------|
C|-----------------------------------------------------------------------------|
G|-----------------------------------------------------------------------------|
C|-----------------------------------------------------------------------------|
...I'm so sorryyy, is this the way it's gotta beeeee?

Ben
D|---------------------------------|
A|---------------------------------|
F|-3-3-3-3-3-3-3-3-3-3-3-3-3-3-3-3-|
C|-3-3-3-3-3-3-3-3-3-3-3-3-3-3-3-3-|
G|-1-1-1-1-1-1-1-1-1-1-1-1-1-1-1-1-|
C|---------------------------------|
Aaron
D|-14-14-14-14---------------------------------|
A|-------------8-8-8-8-10-10-10-10-13-13-13-13-|
F|---------------------------------------------|
C|---------------------------------------------|
G|---------------------------------------------|
C|---------------------------------------------|
...Dear Agonyyyyy"


-Breakdown-
Ben
D||------------------------------------------------------------------|
A||o-----------------------------------------------------------------|
F||--------------------------3-3-3-3-------------------------5-5-5-5-|
C||--0-0-0-0-0-0-0-0-0-0-0-0-3-3-3-3-0-0-0-0-0-0-0-0-0-0-0-0-3-3-3-3-|
G||o-0-0-0-0-0-0-0-0-0-0-0-0-1-1-1-1-0-0-0-0-0-0-0-0-0-0-0-0-3-3-3-3-|
C||--0-0-0-0-0-0-0-0-0-0-0-0---------0-0-0-0-0-0-0-0-0-0-0-0---------|
Aaron
D||-----------------------------------------------------------------|
A||o-10-10-10-10-10-10-10-10-10-10-10-10-10-10-10-10-10-10-10-13-13-|
F||-----------------------------------------------------------------|
C||-----------------------------------------------------------------|
G||o----------------------------------------------------------------|
C||-----------------------------------------------------------------|
-"Leave me alone, God let me go...
-Love, pull me down. Hate, lift me up...


Ben
D|------------------------------------------------------------------||
A|-----------------------------------------------------------------o||
F|-3-3-3-3-3-3-3-3-3-3-3-3-3-3-3-3-3-3-3-3-3-3-3-3-3-3-3-3-5-5-5-5--||
C|-3-3-3-3-3-3-3-3-3-3-3-3-3-3-3-3-3-3-3-3-3-3-3-3-3-3-3-3-5-5-5-5--||
G|-1-1-1-1-1-1-1-1-1-1-1-1-1-1-1-1-1-1-1-1-1-1-1-1-1-1-1-1-3-3-3-3-o||
C|------------------------------------------------------------------||
Aaron
D|-----------------------------------------------------------------||
A|-11-11-11-11-11-11-11-11-11-11-11-11-11-11-11-11-11-11-11-13-13-o||
F|-----------------------------------------------------------------||
C|-----------------------------------------------------------------||
G|----------------------------------------------------------------o||
C|-----------------------------------------------------------------||
...All blue and cold, black sky will burn...
...Just turn around, there's nothing left...

Ben
D|-------------------------------------------------------|
A|-------------------------------------------------------|
F|-------------------------------------------------------|
C|-3~~~~~~~~~~~~~~~~~~~~~~~~~~-0~~~~~~~~~~~~~~~~~~~~~~~~~|
G|-3~~~~~~~~~~~~~~~~~~~~~~~~~~-0~~~~~~~~~~~~~~~~~~~~~~~~~|
C|-3~~~~~~~~~~~~~~~~~~~~~~~~~~-0~~~~~~~~~~~~~~~~~~~~~~~~~|
Aaron
D|-------8-------------3-------------8-------------3-----|
A|---6-----6---6---6-----6---6---6-----6---6---6-----6---|
F|-5---5-----5---5---5-----5---5---5-----5---5---5-----5-|
C|-------------------------------------------------------|
G|-------------------------------------------------------|
C|-------------------------------------------------------|
...Somewhere far beyond this world

Ben
D|-------------------------------------------------------|
A|-------------------------------------------------------|
F|-3~~~~~~~~~~~~~~~~~~~~~~~~~~-5~~~~~~~~~~~~~~~~~~~~~~~~~|
C|-3~~~~~~~~~~~~~~~~~~~~~~~~~~-5~~~~~~~~~~~~~~~~~~~~~~~~~|
G|-1~~~~~~~~~~~~~~~~~~~~~~~~~~-3~~~~~~~~~~~~~~~~~~~~~~~~~|
C|-------------------------------------------------------|
Aaron
D|-------8-------------3---------0-------3~~~~~~~~~~~~~~~|
A|---6-----6---6---6-----6---6-----6---6~~~~~~~~~~~~~~~~~|
F|-5---5-----5---5---5-----5---5-----5~~~~~~~~~~~~~~~~~~~|
C|-------------------------------------------------------|
G|-------------------------------------------------------|
C|-------------------------------------------------------|
...I feel nothing more"

-Chorus-
Ben
D|--------------------------------------------------------------|
A|--------------------------------------------------------------|
F|------------------------------------------------------------5~|
C|-3-3-3-3-3-3-3-3-3-3-3-3-3-3-2~-0-0-0-0-0-0-0-0-0-0-0-0-0-0-5~|
G|-3-3-3-3-3-3-3-3-3-3-3-3-3-3-2~-0-0-0-0-0-0-0-0-0-0-0-0-0-0-3~|
C|-3-3-3-3-3-3-3-3-3-3-3-3-3-3-2~-0-0-0-0-0-0-0-0-0-0-0-0-0-0---|
Aaron
D||--------------------------------------14-14-14-14--||
A||o-10-10-10-10-11-11-11-11-13-13-13-13-------------o||
F||---------------------------------------------------||
C||---------------------------------------------------||
G||o-------------------------------------------------o||
C||---------------------------------------------------||
"Dear Agonyyyyy, just let go of meeee, suff-

Ben
D|----------------------------------------------------------------------------------|
A|----------------------------------------------------------------------------------|
F|-3-3-3-3-3-3-3-3-3-3-3-3-3-3-3-2~-------------------------5-5-5-5-5-5-5-5-5-5-5-5-|
C|-3-3-3-3-3-3-3-3-3-3-3-3-3-3-3-2~-5-5-5-5-5-5-5-5-5-5-5-5-5-5-5-5-5-5-5-5-5-5-5-5-|
G|-1-1-1-1-1-1-1-1-1-1-1-1-1-1-1-0~-5-5-5-5-5-5-5-5-5-5-5-5-3-3-3-3-3-3-3-3-3-3-3-3-|
C|----------------------------------5-5-5-5-5-5-5-5-5-5-5-5-------------------------|
Aaron
D|------------------------------------14-14-14-14-------------------------14-14-14-14-16-16-16-16|
A|10-10-10-10-11-11-11-11-13-13-13-13-------------15-15-15-15-13-13-13-13------------------------|
F|-----------------------------------------------------------------------------------------------|
C|-----------------------------------------------------------------------------------------------|
G|-----------------------------------------------------------------------------------------------|
C|-----------------------------------------------------------------------------------------------|
...-er slowlyyyy, is this the way it's gotta beeee?

Ben
D|-----------------------------------------------------------------|
A|-----------------------------------------------------------------|
F|-----------------------------5~-3-3-3-3-3-3-3-3-3-3-3-3-3-3-3-5~-|
C|-0-0-0-0-0-0-0-0-0-0-0-0-0-0-5~-3-3-3-3-3-3-3-3-3-3-3-3-3-3-3-5~-|
G|-0-0-0-0-0-0-0-0-0-0-0-0-0-0-3~-1-1-1-1-1-1-1-1-1-1-1-1-1-1-1-3~-|
C|-0-0-0-0-0-0-0-0-0-0-0-0-0-0-------------------------------------|
Aaron
D|------------------------------------14-14-14-14-------------------------16-16-16-16-18-18-18-18|
A|10-10-10-10-11-11-11-11-13-13-13-13-------------15-15-15-15-13-13-13-13------------------------|
F|-----------------------------------------------------------------------------------------------|
C|-----------------------------------------------------------------------------------------------|
G|-----------------------------------------------------------------------------------------------|
C|-----------------------------------------------------------------------------------------------|
...Don't bury meee, faceless enemyyyy...

Ben
D|-----------------------------------------------------------------|
A|-----------------------------------------------------------------|
F|---------------------------------5-5-5-5-5-5-5-5-5-5-5-5-5-5-5-5-|
C|-3-3-3-3-3-3-3-3-3-3-3-3-3-3-3-3-5-5-5-5-5-5-5-5-5-5-5-5-5-5-5-5-|
G|-3-3-3-3-3-3-3-3-3-3-3-3-3-3-3-3-3-3-3-3-3-3-3-3-3-3-3-3-3-3-3-3-|
C|-3-3-3-3-3-3-3-3-3-3-3-3-3-3-3-3---------------------------------|
Aaron
D|-----------------------------------------------------------------------------|
A|-11-11-11-11-10-10-10-10-8-8-8-8-10-10-10-10-8-8-8-8-6-6-6-6-5-5-5-5-8-8-8-8-|
F|-----------------------------------------------------------------------------|
C|-----------------------------------------------------------------------------|
G|-----------------------------------------------------------------------------|
C|-----------------------------------------------------------------------------|
...I'm so sorryyy, is this the way it's gotta beeeee?

Ben
D|---------------------------------|
A|---------------------------------|
F|-3-3-3-3-3-3-3-3-3-3-3-3-3-3-3-3-|
C|-3-3-3-3-3-3-3-3-3-3-3-3-3-3-3-3-|
G|-1-1-1-1-1-1-1-1-1-1-1-1-1-1-1-1-|
C|---------------------------------|
Aaron
D|-14-14-14-14---------------------------------|
A|-------------8-8-8-8-10-10-10-10-13-13-13-13-|
F|---------------------------------------------|
C|---------------------------------------------|
G|---------------------------------------------|
C|---------------------------------------------|
...Dear Agonyyyyy"

Ben
D|-----------------------------------------------------------------|
A|-----------------------------------------------------------------|
F|---------------------------------2-2-2-2-2-2-2-2-3-3-3-3-3-3-3-3-|
C|-0-0-0-0-0-0-0-0-3-3-3-3-3-3-3-3-2-2-2-2-2-2-2-2-3-3-3-3-3-3-3-3-|
G|-0-0-0-0-0-0-0-0-3-3-3-3-3-3-3-3-0-0-0-0-0-0-0-0-1-1-1-1-1-1-1-1-|
C|-0-0-0-0-0-0-0-0-3-3-3-3-3-3-3-3---------------------------------|
Aaron
D|-0---0-8~-0------0---0-8~-0------0---0-8~-0------0---0-8~-0------|
A|---6--------6------6--------6------6--------6------6--------6----|
F|--------------5~--------------5~--------------5~--------------5~-|
C|-----------------------------------------------------------------|
G|-----------------------------------------------------------------|
C|-----------------------------------------------------------------|
                             ...I feel nothing any-

Ben
D|-----------------------------------------------------------------|
A|-----------------------------------------------------------------|
F|-----------------------------------------------------------------|
C|-3~~~~~~~~~~~~~~~~~~~~~~~~~~~~~~~~~~~~~~~~~~~~~~~~~~~~~~~~~~~~~~~|
G|-3~~~~~~~~~~~~~~~~~~~~~~~~~~~~~~~~~~~~~~~~~~~~~~~~~~~~~~~~~~~~~~~|
C|-3~~~~~~~~~~~~~~~~~~~~~~~~~~~~~~~~~~~~~~~~~~~~~~~~~~~~~~~~~~~~~~~|
Aaron
D|-----------------------------------------------------------------|
A|-6~~~~~~~~~~~~~~~~~~~~~~~~~~~~~~~~~~~~~~~~~~~~~~~~~~~~~~~~~~~~~~~|
F|-----------------------------------------------------------------|
C|-----------------------------------------------------------------|
G|-----------------------------------------------------------------|
C|-----------------------------------------------------------------|
-more"
comments
print report bad tab
3 comments total.
+1 reply
Legend Jedicsc wrote on August 5 2010, 09:51 pm

This is very good dude. Keep it up!

0 reply
Deadnthehead wrote on August 11 2010, 02:17 am

Hey man this is a great tab....but I think their is small part missing in the first part of the chorus. Im not positive but it sounds like he plays that first part of the chorus twice and maybe with a few extra notes. Again nice tab its helped a lot

0 reply
johnrossb wrote on June 5 2011, 07:38 pm

the first part of the verse is easier to play like this i think

D|--------------------------------------------------
A|----6---8-6---6---6-------------------------------
F|--5---5-----5---5---5-----------------------------
C|--------------------------------------------------
G|--------------------------------------------------
C|--------------------------------------------------

I want to post or [tab]
guest
You may want to rate the tab now too:
select rating
Please do not post tabs as comments. Select "correction" instead!