Oops, an error
Loading. Please wait.

I Will Not Bow Tab

ver1
ver1

Whole song

More versions @911Tabs.com
233,570 views 373 this week
45 commentsread comments
1 2 3 4 5
excellent!
x 40
Autoscroll
+/-
esc
set tempo
stop
Contributor
WARNING: You are trying to view
                                    content from Ultimate-Guitar.com
                                    in an unauthorized application,
                                    which is prohibited.

                                    Please use an official Ultimate
                                    Guitar Tabs application for iPhone,
                                    iPad or Android to access legitimate
                                    chords, guitar, bass, and drum tabs
                                    from Ultimate-Guitar.com database.

                                    Type "ultimate guitar tabs" in Apple
                                    App Store's or Android Market's
                                    search to find the application.
Breaking Benjamin
I Will Not Bow
Tabbed by U B the band
Tuning Bb F Bb Eb G C

For those of you who don't know: I tabbed this almost exactally like Aaron
plays it in the GuitarWorld Lesson. After watching that video I made updates
on this tab, so basically, this tab is how Ben and Aaron play this song.

Legend
h-hammer on         p-pull off         *-harmonic         PH-pinch harmonic

Intro: Guitar 1 (Distorted with Wah) BEN
 C|--------------------------------------------------------------------------|
 G|--------------------------------------------------------------------------|
Eb|--------------------------------------------------------------------------|
Bb|--------------------------------------------------------------------------|
 F|-----------------------------------3--------------------------------------|
Bb|--0-h2--2---2---3-p2--2---2--0-h2---------0-h2--2---2---3-p2--2---0---5---|
                                                                             |
Intro: Guitar 2 (Distorted) AARON TAP ALL NOTES                              |
 C|--------------------------------------------------------------------------|
 G|--------------------------------------------------------------------------|
Eb|----4-9----4-7----4--------4------4---------4-9----4-7----4---------------|
Bb|--2------2------2----10--2---9--2---7/9---2------2------2----10-2-10-2--7-|
 F|--------------------------------------------------------------------------|
Bb|--------------------------------------------------------------------------|

Intro: Guitar 1 (Distorted with Wah) BEN
 C|--------------------------------------------------------------------------|
 G|--------------------------------------------------------------------------|
Eb|--------------------------------------------------------------------------|
Bb|--------------------------------------------------------------------------|
 F|-----------------------------------3--------------------------------------|
Bb|--0-h2--2---2---3-p2--2---2--0-h2---------0-h2--2---2---3-p2----2-----2---|
                                                                             |
Intro: Guitar 2 (Distorted) AARON TAP ALL NOTES                              |
 C|--------------------------------------------------------------------------|
 G|--------------------------------------------------------------------------|
Eb|----4-9----4-7----4--------4------4---------4-9----4-7----4---------------|
Bb|--2------2------2----10--2---9--2---7/9---2------2------2----10-2-10-2--7-|
 F|--------------------------------------------------------------------------|
Bb|--------------------------------------------------------------------------|

Intro: Guitars 1 & 2 (Distorted)
 C|--------------------------------------------------------------------------|
 G|--------------------------------------------------------------------------|
Eb|--------------------------------------------------------------------------|
Bb|--------------------------------------------------------------------------|
 F|--0--2----2---2--3--2----2---2--0--2--3---0--2----2--3--2---2----2--0--5--|
Bb|--0--2----2---2--3--2----2---2--0--2------0--2----2--3--2---2----2--0--5--|

Intro: Guitar 1 (Distorted)
 C|--------------------------------------------------------------------------|
 G|--------------------------------------------------------------------------|
Eb|--------------------------------------------------------------------------|
Bb|--10--------10--------10---10------7---7---------0--0--3--0--2------------|
 F|--10--------10--------10---10------7---7---------0--0--3--0--2------------|
Bb|--10--------10--------10---10------7---7------------0--3--0--2------------|
                                                                             |
Intro: Guitar 2 (Distorted)                                                  |
 C|--------------------------------------------------------------------------|
 G|--13--------12---------8-----------5--------------8-10-12-13-12-----------|
Eb|---x---------x---------x-----------x--------------x--x--x--x--x-----------|
Bb|--10---------9---------5-----------2--------------5--7--9-10--9-----------|
 F|--------------------------------------------------------------------------|
Bb|--------------------------------------------------------------------------|

Verse 1: Guitar 1 (Distorted)
 C|--------------------------------------------------------------0-----------|
 G|------------------------------------------------------------0-------------|
Eb|---------------------------------------5----------------------------------|
Bb|-(2)-----------------------------------5----------------------------------|
 F|-(2)-----------------------------------3----------------------------------|
Bb|-(2)------------------------------------------------------0---------------|
                                                                             |
Verse 1: Guitar 2 (Distorted)                                                |
 C|--------------------------------------------------------------0-----------|
 G|------------------------------------------------------------0-------------|
Eb|--9------------------------------------9----------------------------------|
Bb|--9-----------------------------------10----------------------------------|
 F|--7------------------------------------7----------------------------------|
Bb|----------------------------------------------------------0---------------|

Verse 1: Guitar 1 (Distorted)
 C|--------------------------------------------------------------0-----------|
 G|------------------------------------------------------------0-------------|
Eb|--4------------------------------------5----------------------------------|
Bb|--2------------------------------------5----------------------------------|
 F|--2------------------------------------3----------------------------------|
Bb|--2-------------------------------------------------------0---------------|
                                                                             |
Verse 1: Guitar 2 (Distorted)                                                |
 C|--------------------------------------------------------------0-----------|
 G|------------------------------------------------------------0-------------|
Eb|--9------------------------------------9----------------------------------|
Bb|--9-----------------------------------10----------------------------------|
 F|--7------------------------------------7----------------------------------|
Bb|----------------------------------------------------------0---------------|

Verse 1: Guitar 2 (Distorted)
 C|--------------------------------------------------------------------------|
 G|--------------------------------------------------------------------------|
Eb|--------------------------------------------------------------------------|
Bb|--------------------------------------------------------------------------|
 F|--2---2---2-------------5p0-------2---2---2-------------5b----------------|
Bb|--2---2---2-------0h5h7-----5h7---2---2---2-------0h5h7-------------------|

Verse 1: Guitar 2 (Distorted)
 C|--------------------------------------------------------------------------|
 G|--------------------------------------------------------------------------|
Eb|--------------------------------------------------------------------------|
Bb|--5---5---5---------------------------------------------------------------|
 F|--3---3---3-----------------------0---0---0-------------------------------|
Bb|--2---2---2-------0h2p0-5\4-0h2---0---0---0-------0-5-0-4/5\4-------------|

Verse 1: Guitar 2 (Distorted)
 C|--------------------------------------------------------------------------|
 G|--------------------------------------------------------------------------|
Eb|--------------------------------------------------------------------------|
Bb|--------------------------------------------------------------------------|
 F|--2---2---2-------------5p0-------2---2---2-------------5b----------------|
Bb|--2---2---2-------0h5h7-----5h7---2---2---2-------0h5h7-------------------|

Verse 1: Guitar 2 (Distorted)
 C|--------------------------------------------------------------------------|
 G|--------------------------------------------------------------------------|
Eb|--------------------------------------------------------------------------|
Bb|--5---5---5---------------------------------------------------------------|
 F|--3---3---3-----------------------0---0---0-------------------------------|
Bb|--2---2---2-------0h2p0-5\4-0h2---0---0---0-------0-5-0-4/5\4-------------|

Pre Chorus: Guitar 1 (Distorted)
 C|--------------------------------------------------------------------------|
 G|-------------------3---------------------------------3--------------------|
Eb|--5----------------2----------------5----------------2--------------------|
Bb|--5----------------0----------------5----------------0--------------------|
 F|--3----------------0----------------3----------------0-----------0--------|
Bb|-------------------0---------------------------------0-----------0--------|
                                                                             |
Pre Chorus: Guitar 2 (Clean)                                                 |
 C|--------------------------------------------------------------------------|
 G|------------------------------------------------------------------10------|
Eb|-----------11--12------------------------------11--12----------12---------|
Bb|-----12-----------------12---------------12-----------------12------------|
 F|--10----10-----------12----12-10-9----10----10------------0---------------|
Bb|--------------------------------------------------------------------------|

Chorus: Guitar 1 (Distorted)
 C|-----------------0---------------------------------0----------------------|
 G|-----------------0---------------------------------0----------------------|
Eb|--4-----4-----4-----------------------------------------------------------|
Bb|--2-----2-----2-------0---0---0-0----0-10--10--10-------10--10--10-10-----|
 F|--2-----2-----2-------0---0---0-0----0-10--10--10-------10--10--10-10--0--|
Bb|--2-----2-----2-------0---0---0-0----0-10--10--10-------10--10--10-10--0--|
                                                                             |
Chorus: Guitar 3 STUDIO FILL IN (Distorted)                                  |
 C|--------------------------------------------------------------------------|
 G|--------------------------------------------------------------------------|
Eb|--9-----9-----9-------11-11--11-12--14-12--12--12-------12----------------|
Bb|--x-----x-----x--------x--x---x--x---x--x---x---x--------x----------------|
 F|--7-----7-----7--------9--9---9-10--12-10--10--10-------10----------------|
Bb|--------------------------------------------------------------------------|

Chorus: Guitar 1 (Distorted)
 C|-----------------0---------------------------------0----------------------|
 G|-----------------0---------------------------------0----------------------|
Eb|--4-----4-----4-----------------------------------------------------------|
Bb|--2-----2-----2-------0---0---0-0----0-10--10--10-------10--10--10-10-----|
 F|--2-----2-----2-------0---0---0-0----0-10--10--10-------10--10--10-10--5--|
Bb|--2-----2-----2-------0---0---0-0----0-10--10--10-------10--10--10-10--5--|
                                                                             |
Chorus: Guitar 3 STUDIO FILL IN (Distorted)                                  |
 C|--------------------------------------------------------------------------|
 G|--------------------------------------------------------------------------|
Eb|--9-----9-----9-------11-11--11-14-11--12--12--12-------12----------------|
Bb|--x-----x-----x--------x--x---x--x--x---x---x---x--------x----------------|
 F|--7-----7-----7--------9--9---9-12--9--10--10--10-------10----------------|
Bb|--------------------------------------------------------------------------|

Post Chorus: Guitars 1 & 2 (Distorted)
 C|--------------------------------------------------------------------------|
 G|--------------------------------------------------------------------------|
Eb|--------------------------------------------------------------------------|
Bb|--------------------------------------------------------------------------|
 F|--0--2----2---2--3--2----2---2--0--2--3---0--2----2--3--2---2----2--0--5--|
Bb|--0--2----2---2--3--2----2---2--0--2------0--2----2--3--2---2----2--0--5--|

Post Chorus: Guitar 1 (Distorted)
 C|--------------------------------------------------------------------------|
 G|--------------------------------------------------------------------------|
Eb|--------------------------------------------------------------------------|
Bb|--10--------10--------10---10------7---7---------7--x-x-x-3--2------------|
 F|--10--------10--------10---10------7---7---------7--x-x-x-3--2------------|
Bb|--10--------10--------10---10------7---7---------7--x-x-x-3--2------------|
                                                                             |
Post Chorus: Guitar 2 (Distorted)                                            |
 C|--------------------------------------------------------------------------|
 G|--13--------12---------8-----------5--------------8-10-12-13-12-----------|
Eb|---x---------x---------x-----------x--------------x--x--x--x--x-----------|
Bb|--10---------9---------5-----------2--------------5--7--9-10--9-----------|
 F|--------------------------------------------------------------------------|
Bb|--------------------------------------------------------------------------|
     |______Tremolo______|

Verse 2: Guitar 1 (Distorted)
 C|--------------------------------------------------------------0-----------|
 G|------------------------------------------------------------0-------------|
Eb|---------------------------------------5----------------------------------|
Bb|-(2)-----------------------------------5----------------------------------|
 F|-(2)-----------------------------------3----------------------------------|
Bb|-(2)------------------------------------------------------0---------------|
                                                                             |
Verse 2: Guitar 2 (Distorted)                                                |
 C|--------------------------------------------------------------0-----------|
 G|------------------------------------------------------------0-------------|
Eb|--9------------------------------------9----------------------------------|
Bb|--9-----------------------------------10----------------------------------|
 F|--7------------------------------------7----------------------------------|
Bb|----------------------------------------------------------0---------------|

Verse 2: Guitar 2 (Distorted)
 C|--------------------------------------------------------------------------|
 G|--------------------------------------------------------------------------|
Eb|----------------------x-x-------------------------------------x-x---------|
Bb|----------------------x-x-0--4--5-----------------------------x-x-0--5--4-|
 F|--0-2-2--0-2-2-2--0-2-x-x-0--4--5-10-10-10-12-10-10-10-12-10--x-x-0--5--5-|
Bb|--0-2-2--0-2-2-2--0-2-x-x-0--4--5-10-10-10-12-10-10-10-12-10--x-x-0--5--4-|

Pre Chorus: Guitar 1 (Distorted)
 C|--------------------------------------------------------------------------|
 G|-------------------3---------------------------------3--------------------|
Eb|--5----------------2----------------5----------------2--------------------|
Bb|--5----------------0----------------5----------------0--------------------|
 F|--3----------------0----------------3----------------0-----------0--------|
Bb|-------------------0---------------------------------0-----------0--------|
                                                                             |
Pre Chorus: Guitar 2 (Clean)                                                 |
 C|--------------------------------------------------------------------------|
 G|------------------------------------------------------------------10------|
Eb|-----------11--12------------------------------11--12----------12---------|
Bb|-----12-----------------12---------------12-----------------12------------|
 F|--10----10-----------12----12-10-9----10----10------------0---------------|
Bb|--------------------------------------------------------------------------|

Chorus: Guitar 1 (Distorted)
 C|-----------------0---------------------------------0----------------------|
 G|-----------------0---------------------------------0----------------------|
Eb|--4-----4-----4-----------------------------------------------------------|
Bb|--2-----2-----2-------0---0---0-0----0-10--10--10-------10--10--10-10-----|
 F|--2-----2-----2-------0---0---0-0----0-10--10--10-------10--10--10-10--0--|
Bb|--2-----2-----2-------0---0---0-0----0-10--10--10-------10--10--10-10--0--|
                                                                             |
Chorus: Guitar 2 (Distorted) ALL HARMONICS                                   |
 C|--12----12-----------12----12---------12----12-----------12----12---------|
 G|---------------7---------------7-------------------7------------------7---|
Eb|------7-----5-----7------7--------5-------7-----5-----7------7-----5------|
Bb|--------------------------------------------------------------------------|
 F|--------------------------------------------------------------------------|
Bb|--------------------------------------------------------------------------|
                                                                             |
Chorus: Guitar 3 STUDIO FILL IN (Distorted)                                  |
 C|--------------------------------------------------------------------------|
 G|--------------------------------------------------------------------------|
Eb|--9-----9-----9-------11-11--11-12--14-12--12--12-------12----------------|
Bb|--x-----x-----x--------x--x---x--x---x--x---x---x--------x----------------|
 F|--7-----7-----7--------9--9---9-10--12-10--10--10-------10----------------|
Bb|--------------------------------------------------------------------------|

Chorus: Guitar 1 (Distorted)
 C|-----------------0---------------------------------0----------------------|
 G|-----------------0---------------------------------0----------------------|
Eb|--4-----4-----4-----------------------------------------------------------|
Bb|--2-----2-----2-------0---0---0-0----0-10--10--10-------10--10--10-10-----|
 F|--2-----2-----2-------0---0---0-0----0-10--10--10-------10--10--10-10--5--|
Bb|--2-----2-----2-------0---0---0-0----0-10--10--10-------10--10--10-10--5--|
                                                                             |
Chorus: Guitar 2 (Distorted) ALL HARMONICS                                   |
 C|--12----12-----------12----12---------12----12-----------12----12---------|
 G|---------------7---------------7-------------------7------------------7---|
Eb|------7-----5-----7------7--------5-------7-----5-----7------7-----5------|
Bb|--------------------------------------------------------------------------|
 F|--------------------------------------------------------------------------|
Bb|--------------------------------------------------------------------------|
                                                                             |
Chorus: Guitar 3 STUDIO FILL IN (Distorted)                                  |
 C|--------------------------------------------------------------------------|
 G|--------------------------------------------------------------------------|
Eb|--9-----9-----9-------11-11--11-14-11--12--12--12-------12----------------|
Bb|--x-----x-----x--------x--x---x--x--x---x---x---x--------x----------------|
 F|--7-----7-----7--------9--9---9-12--9--10--10--10-------10----------------|
Bb|--------------------------------------------------------------------------|

Chorus: Guitar 1 (Distorted) PLAY 1 TIME
 C|-----------------0---------------------------------0----------------------|
 G|-----------------0---------------------------------0----------------------|
Eb|--------------------------------------------------------------------------|
Bb|----------------------0---0---0-0----0-10--10--10-------10--10--10-10-----|
 F|--0--2--2--0--2-------0---0---0-0----0-10--10--10-------10--10--10-10--0--|
Bb|--0--2--2--0--2-------0---0---0-0----0-10--10--10-------10--10--10-10--0--|
                                                                             |
Chorus: Guitar 2 (Distorted)                                                 |
 C|---0---0--0--0--0--0--0---0--0--0--0--0---0--0--0--0--0--0---0--0--7b8r7--|
 G|---3/5-5--5--8--7--3--3/5-5--5--7--8--3/5-5--5--8--7--3--3/5-5--5---------|
Eb|--------------------------------------------------------------------------|
Bb|--------------------------------------------------------------------------|
 F|--------------------------------------------------------------------------|
Bb|--------------------------------------------------------------------------|
                                                                             |
Chorus: Guitar 3 STUDIO FILL IN (Distorted)                                  |
 C|--------------------------------------------------------------------------|
 G|--------------------------------------------------------------------------|
Eb|--9-----9-----9-------11-11--11-12--14-12--12--12-------12----------------|
Bb|--x-----x-----x--------x--x---x--x---x--x---x---x--------x----------------|
 F|--7-----7-----7--------9--9---9-10--12-10--10--10-------10----------------|
Bb|--------------------------------------------------------------------------|

Chorus: Guitar 1 (Distorted) PLAY 1 TIME
 C|-----------------0---------------------------------0----------------------|
 G|-----------------0---------------------------------0----------------------|
Eb|--4-----4-----4-----------------------------------------------------------|
Bb|--2-----2-----2-------0---0---0-0----0-10--10--10-------10--10--10-10-----|
 F|--2-----2-----2-------0---0---0-0----0-10--10--10-------10--10--10-10--5--|
Bb|--2-----2-----2-------0---0---0-0----0-10--10--10-------10--10--10-10--5--|
                                                                             |
Chorus: Guitar 2 (Distorted)                                                 |
 C|---0---0--0--0--0--0--0---0--0--0--0--0---0--0--0--0--0--0---0--0--7b8r7--|
 G|---3/5-5--5--8--7--3--3/5-5--5--7--8--3/5-5--5--8--7--3--3/5-5--5---------|
Eb|--------------------------------------------------------------------------|
Bb|--------------------------------------------------------------------------|
 F|--------------------------------------------------------------------------|
Bb|--------------------------------------------------------------------------|
                                                                             |
Chorus: Guitar 3 STUDIO FILL IN (Distorted)                                  |
 C|--------------------------------------------------------------------------|
 G|--------------------------------------------------------------------------|
Eb|--9-----9-----9-------11-11--11-14-11--12--12--12-------12----------------|
Bb|--x-----x-----x--------x--x---x--x--x---x---x---x--------x----------------|
 F|--7-----7-----7--------9--9---9-12--9--10--10--10-------10----------------|
Bb|--------------------------------------------------------------------------|

Bridge: Guitar 1 (Distorted)
 C|--------------------------------------------------------------------------|
 G|--------------------------------------------------------------------------|
Eb|----------------7PH-------------------------------------------------------|
Bb|--------------------7--7PH------------------------------------------------|
 F|--7----10----7--------------7----10----7----------------------------------|
Bb|---------------------------------------------------------2--5--0----------|
                                                                             |
Bridge: Guitar 2 (Distorted with WAH)                                        |
 C|-------------------------------------------------------------/--\---------|
 G|-------------------------------------------------------------/--\---------|
Eb|-------------------------------------------------------------/--\---------|
Bb|-------------------------------------------------------------/--\---------|
 F|-------------------------------------------------------------/--\---------|
Bb|-------------------------------------------------------------/--\---------|

Bridge: Guitar 1 (Distorted) 
 C|--------------------------------------------------------------------------|
 G|--------------------------------------------------------------------------|
Eb|----------------------------9/10\9-7-9---------------------------9/10\9-12|
Bb|----------------------------x--x-x-x-x---------------------------x--x-x--x|
 F|--2--5--2--8--7--3--2--5--2-7/-8\7-5-7-2--5--2--8--7--3--2--5--2-7/-8\7-10|
Bb|--2--5--2--8--7--3--2--5--2------------2--5--2--8--7--3--2--5--2----------|

Bridge: Guitar 1 (Distorted)
 C|--------------------------------------------------------------------------|
 G|--------------------------------------------------------------------------|
Eb|----------------------------9/10\9-7-9------------------------------------|
Bb|----------------------------x--x-x-x-x------------------------------------|
 F|--2--5--2--8--7--3--2--5--2-7/-8\7-5-7-2--5--2--8--7--3--2--5--2--0-0--5--|
Bb|--2--5--2--8--7--3--2--5--2------------2--5--2--8--7--3--2--5--2--0-0--5--|

Bridge/Solo: Guitar 2 (Distorted)
 C|---------15--14----15-/19--15--14--/17--15--14----------15--14------------|
 G|--/17--------------------------------------------17-----------------------|
Eb|--------------------------------------------------------------------------|
Bb|--------------------------------------------------------------------------|
 F|--------------------------------------------------------------------------|
Bb|--------------------------------------------------------------------------|

Bridge/Solo: Guitar 2 (Distorted)
 C|-----------------------------------------------------------15--14---------|
 G|--19-15----15-19/20\19-15-19-15-19-15-19-15----15---17--------------------|
Eb|--------16----------------------------------16----------------------------|
Bb|--------------------------------------------------------------------------|
 F|--------------------------------------------------------------------------|
Bb|--------------------------------------------------------------------------|

Bridge/Solo: Guitar 2 (Distorted)
 C|--15-/19--15--14--/20--15--14----------12-/14-----------------------------|
 G|--------------------------------12-----------------10-13-12-10--8---------|
Eb|------------------------------------------------12------------------------|
Bb|--------------------------------------------------------------------------|
 F|--------------------------------------------------------------------------|
Bb|--------------------------------------------------------------------------|

Bridge/Solo: Guitar 2 (Distorted)
 C|---------7----------------------------------------------------------------|
 G|--7h8h10-----8-p7--5-p3--0-h3--5/7--5*------------------------------------|
Eb|--------------------------------------------------------------------------|
Bb|--------------------------------------------------------------------------|
 F|--------------------------------------------------------------------------|
Bb|--------------------------------------------------------------------------|

Chorus: Guitar 1 (Distorted)
 C|----------------------------------------------------0---------------------|
 G|----------------------------------------------------0---------------------|
Eb|--------------------------------------------------------------------------|
Bb|--2-----2-----2-------0----0----0-------10--10--10-------10--10--10-10----|
 F|--2-----2-----2-------0----0----0-------10--10--10-------10--10--10-10--0-|
Bb|--2-----2-----2-------0----0----0-------10--10--10-------10--10--10-10--0-|
                                                                             |
Chorus: Guitar 2 (Distorted) ALL HARMONICS                                   |
 C|----------------------------------------12----12-----------12----12-------|
 G|-(5*)------------------------------------------------7------------------7-|
Eb|--------------------------------------------7-----5-----7------7-----5----|
Bb|--------------------------------------------------------------------------|
 F|--------------------------------------------------------------------------|
Bb|--------------------------------------------------------------------------|
                                                                             |
Chorus: Guitar 3 STUDIO FILL IN (Distorted)                                  |
 C|--------------------------------------------------------------------------|
 G|--------------------------------------------------------------------------|
Eb|----------------------------------------12--12--12-------12---------------|
Bb|-----------------------------------------x---x---x--------x---------------|
 F|----------------------------------------10--10--10-------10---------------|
Bb|--------------------------------------------------------------------------|

Chorus: Guitar 1 (Distorted)
 C|-----------------0---------------------------------0----------------------|
 G|-----------------0---------------------------------0----------------------|
Eb|--4-----4-----4-----------------------------------------------------------|
Bb|--2-----2-----2-------0---0---0-0----0-10--10--10-------10--10--10-10-----|
 F|--2-----2-----2-------0---0---0-0----0-10--10--10-------10--10--10-10--5--|
Bb|--2-----2-----2-------0---0---0-0----0-10--10--10-------10--10--10-10--5--|
                                                                             |
Chorus: Guitar 2 (Distorted) ALL HARMONICS                                   |
 C|--12----12-----------12----12---------12----12-----------12----12---------|
 G|---------------7---------------7-------------------7------------------7---|
Eb|------7-----5-----7------7--------5-------7-----5-----7------7-----5------|
Bb|--------------------------------------------------------------------------|
 F|--------------------------------------------------------------------------|
Bb|--------------------------------------------------------------------------|
                                                                             |
Chorus: Guitar 3 STUDIO FILL IN (Distorted)                                  |
 C|--------------------------------------------------------------------------|
 G|--------------------------------------------------------------------------|
Eb|--9-----9-----9-------11-11--11-14-11--12--12--12-------12----------------|
Bb|--x-----x-----x--------x--x---x--x--x---x---x---x--------x----------------|
 F|--7-----7-----7--------9--9---9-12--9--10--10--10-------10----------------|
Bb|--------------------------------------------------------------------------|

Chorus: Guitar 1 (Distorted) PLAY 2 TIMES
 C|-----------------0---------------------------------0----------------------|
 G|-----------------0---------------------------------0----------------------|
Eb|--4-----4-----4-----------------------------------------------------------|
Bb|--2-----2-----2-------0---0---0-0----0-10--10--10-------10--10--10-10-----|
 F|--2-----2-----2-------0---0---0-0----0-10--10--10-------10--10--10-10-9-5-|
Bb|--2-----2-----2-------0---0---0-0----0-10--10--10-------10--10--10-10-9-5-|
                                                                             |
Chorus: Guitar 2 (Distorted)                                                 |
 C|--0---0--0--0--0--0--0---0--0--0--0----3p0-7p0-8p0-7p0-5p0-3p0-2p0-3p0----|
 G|--3/5-5--5--8--7--3--3/5-5--5--7--8---------------------------------------|
Eb|--------------------------------------------------------------------------|
Bb|--------------------------------------------------------------------------|
 F|--------------------------------------------------------------------------|
Bb|--------------------------------------------------------------------------|
                                          |____________Tremolo____________|

Outro: Guitars 1 & 2 (Distorted)
 C|--------------------------------------------------------------------------|
 G|--------------------------------------------------------------------------|
Eb|--------------------------------------------------------------------------|
Bb|--------------3--------------------------------------------2--------------|
 F|--2h3p2--0--2----2--0--3---2h3p2--0--2---------------------2--------------|
Bb|--2h3p2--0--2----2--0--3---2h3p2--0--2--8-7p0--5-7p0--3h5--2--------------|

Finished
comments
print report bad tab
45 comments total. Showing first comments.
+6 reply
ambient203 wrote on August 18 2009, 04:22 am

hey first to comment! UB just wanted to say that i, and im sure other breaking benjamin fans alike, appreciate you tabbing so many of their songs so well and the effort it took. i think in the bridge/solo, there are 4 slides you missed (17/19, 15/17 then 17/19, 17/20 on C string) but i could be wrong. anyways, thanks again UB, really excellent work.

+5 reply
U B the band wrote on August 18 2009, 09:49 am

I notice the slides a last night and was going to fix them today haha I didn't think anyone would have noticed, there are pretty obvious aren't they. Thanks for reminding me though, I get busy and I would have forgotten.

+1 reply
corbz wrote on August 22 2009, 05:14 am

Firstly thanks for tabbing, and expecially so early. I agree with ambient203 ^^^

Pretty nice tab, however the part before the solo definitely has a couple pinch harmonics instead of notes on the higher strings like u have it atm. Something like this sounds pretty good to me:

Bridge: Guitar 2 (Distorted)
C|-----------------------------------------------------------------|
G|-----------------------------------------------------------------|
Eb|-----------------------------------------------------------------|
Bb|----------------10*---7------------------------------------------|
F|--7----10----7------------10*--7----10----7----------------------|
Bb|-----------------------------------------------------------------|

I want to post or [tab]
guest
You may want to rate the tab now too:
select rating
Please do not post tabs as comments. Select "correction" instead!