Oops, an error
Loading. Please wait.

Lights Out Tab

ver2
ver2

Solo

Whole song

Interactive

More versions @911Tabs.com
23,923 views 51 this week
12 commentsread comments
1 2 3 4 5
excellent!
x 10
Autoscroll
+/-
esc
set tempo
stop
Contributor
Hey! There's an official Ultimate Guitar app which is ideal
for learning songs when you're away from computer. Get the app
WARNING: You are trying to view
                                    content from Ultimate-Guitar.com
                                    in an unauthorized application,
                                    which is prohibited.

                                    Please use an official Ultimate
                                    Guitar Tabs application for iPhone,
                                    iPad or Android to access legitimate
                                    chords, guitar, bass, and drum tabs
                                    from Ultimate-Guitar.com database.

                                    Type "ultimate guitar tabs" in Apple
                                    App Store's or Android Market's
                                    search to find the application.
Breaking Benjamin
Lights Out
Tabbed by U B the band
Tuning Bb F Bb Eb G C

Legend
/-slide up              b-bend              ()-bend to             \-slide down

Intro: Guitars 1 & 2 (Distorted)
 C|------------------------------------------------------------------------------------|
 G|------------------------------------------------------------------------------------|
Eb|------------------------------------------------------------------------------------|
Bb|------------------------------------------------------------------------------------|
 F|--------------------5----------3--6----------------------5--------5--6--3-----------|
Bb|--0---1--0---1-0-1----4-0-4-7----------0---1--0---1-0-1----4-0-4--------------------|

Verse 1: Guitar 1 (Distorted)
 C|------------------------------------------------------------------------------------|
 G|------------------------------------------------------------------------------------|
Eb|------------------------------------------------------------------------------------|
Bb|------------------------------------------------------------------------------------|
 F|------------------------------------------------------------------------------------|
Bb|-0-10-0-12-0-12-10-0-13/12-0-12-10-0-10-12-0-10-0-12-0-12-10-0-13/12-0-12-10-0-10-12|
     pmpmpmpmpmpmpmpmpmpmpmpmpmpmpmpmpmpmpmpmpmpmpmpmpmpmpmpmpmpmpmpmpmpmpmpmpmpmpmpmpm|
                                                                                       |
Verse 1: Guitar 2 (Distorted)                                                          |
 C|------------------------------------------------------------------------------------|
 G|----------------------------------------10----------------------------11------------|
Eb|--7---------------------------------------------------------------------------------|
Bb|------------------------------------------------------------------------------------|
 F|------------------------------------------------------------------------------------|
Bb|------------------------------------------------------------------------------------|

Verse 1: Guitar 1 (Distorted)
 C|------------------------------------------------------------------------------------|
 G|------------------------------------------------------------------------------------|
Eb|------------------------------------------------------------------------------------|
Bb|-----------------------------------------------1----0---0--0---0--0--0---0--0--1----|
 F|-----------------------------------------------1----0---0--0---0--0--0---0--0--1----|
Bb|--0-10-0-12-0-12-10-0-13/12-0-12-10-0----------1----0---0--0---0--0--0---0--0--1----|
     pmpmpmpmpmpmpmpmpmpmpmpmpmpmpmpmpmpm                                              |
                                                                                       |
Verse 1: Guitar 2 (Distorted)                                                          |
 C|------------------------------------------------------------------------------------|
 G|--8---------------------------------------------------------------------------------|
Eb|------------------------------------------------------------------------------------|
Bb|-----------------------------------------------1----0---0--0---0--0--0---0--0--1----|
 F|-----------------------------------------------1----0---0--0---0--0--0---0--0--1----|
Bb|-----------------------------------------------1----0---0--0---0--0--0---0--0--1----|

Verse 1: Guitar 1 (Distorted)
 C|------------------------------------------------------------------------------------|
 G|------------------------------------------------------------------------------------|
Eb|------------------------------------------------------------------------------------|
Bb|------------------------------------------------------------------------------------|
 F|------------------------------------------------------------------------------------|
Bb|-0-10-0-12-0-12-10-0-13/12-0-12-10-0-10-12-0-10-0-12-0-12-10-0-13/12-0-12-10-0-10-12|
     pmpmpmpmpmpmpmpmpmpmpmpmpmpmpmpmpmpmpmpmpmpmpmpmpmpmpmpmpmpmpmpmpmpmpmpmpmpmpmpmpm|
                                                                                       |
Verse 1: Guitar 2 (Distorted)                                                          |
 C|------------------------------------------------------------------------------------|
 G|----------------------------------------10----------------------------11------------|
Eb|--7---------------------------------------------------------------------------------|
Bb|------------------------------------------------------------------------------------|
 F|------------------------------------------------------------------------------------|
Bb|------------------------------------------------------------------------------------|

Verse 1: Guitar 1 (Distorted)
 C|------------------------------------------------------------------------------------|
 G|------------------------------------------------------------------------------------|
Eb|------------------------------------------------------------------------------------|
Bb|-----------------------------------------------1-------0--0---0--0---0--1--0--3-----|
 F|-----------------------------------------------1---0h1-0--0---0--0---0--1--0--3-----|
Bb|--0-10-0-12-0-12-10-0-13/12-0-12-10-0----------1---0h1-0--0---0--0---0--1--0--3-----|
     pmpmpmpmpmpmpmpmpmpmpmpmpmpmpmpmpmpm                                              |
                                                                                       |
Verse 1: Guitar 2 (Distorted)                                                          |
 C|------------------------------------------------------------------------------------|
 G|--8---------------------------------------------------------------------------------|
Eb|------------------------------------------------------------------------------------|
Bb|-----------------------------------------------1-------0--0---0--0---0--1--0--3-----|
 F|-----------------------------------------------1---0h1-0--0---0--0---0--1--0--3-----|
Bb|-----------------------------------------------1---0h1-0--0---0--0---0--1--0--3-----|

Pre Chorus: Guitar 1 (Distorted) PLAY 2 TIMES
 C|------------------------------------------------------------------------------------|
 G|------------------------------------------------------------------------------------|
Eb|--10--10--10--10---10--10--10--10---12---12---12---12----12---12---12---12----------|
Bb|--8---8---8---8----8---8---8---8----10---10---10---10----10---10---10---10----------|
 F|--8---8---8---8----8---8---8---8----10---10---10---10----10---10---10---10----------|
Bb|--8---8---8---8----8---8---8---8----10---10---10---10----10---10---10---10----------|
                                                                                       |
Pre Chorus: Guitar 2 (Distorted) PLAY 2 TIMES                                          |
 C|------------------------------------------------------------------------------------|
 G|--6-6-6-6--6-6-6-6--6-6-6-6--10-10-10-10--8-8-8-8--8-8-8-8--8-8-8-8-10-10-10-10-----|
Eb|--x-x-x-x--x-x-x-x--x-x-x-x---x--x--x--x--x-x-x-x--x-x-x-x--x-x-x-x--x--x--x--x-----|
Bb|--3-3-3-3--3-3-3-3--3-3-3-3---7--7--7--7--5-5-5-5--5-5-5-5--5-5-5-5--7--7--7--7-----|
 F|------------------------------------------------------------------------------------|
Bb|------------------------------------------------------------------------------------|

Pre Chorus: Guitar 1 (Distorted)
 C|------------------------------------------------------------------------------------|
 G|------------------------------------------------------------------------------------|
Eb|------------------------------------------------------------------------------------|
Bb|--0---0----0---0-----0---0----0---0-----0---0----0---0-----0---0----0---0-----------|
 F|--0---0----0---0-----0---0----0---0-----0---0----0---0-----0---0----0---0-----------|
Bb|--0---0----0---0-----0---0----0---0-----0---0----0---0-----0---0----0---0-----------|
                                                                                       |
Pre Chorus: Guitar 2 (Distorted)                                                       |
 C|------------------------------------------------------------------------------------|
 G|------------------------------------------------------------------------------------|
Eb|-11111111--11111111--11111111--11111111--7-7-7-7--7-7-7-7--7-7-7-7--9-9-9-9---------|
Bb|--x-x-x-x---x-x-x-x---x-x-x-x---x-x-x-x--x-x-x-x--x-x-x-x--x-x-x-x--x-x-x-x---------|
 F|--9-9-9-9---9-9-9-9---9-9-9-9---9-9-9-9--5-5-5-5--5-5-5-5--5-5-5-5--7-7-7-7---------|
Bb|------------------------------------------------------------------------------------|

Pre Chorus: Guitar 1 (Distorted) PLAY 1 TIME
 C|------------------------------------------------------------------------------------|
 G|------------------------------------------------------------------------------------|
Eb|--10--10--10--10---10--10--10--10---12---12---12---12----12---12---12---12----------|
Bb|--8---8---8---8----8---8---8---8----10---10---10---10----10---10---10---10----------|
 F|--8---8---8---8----8---8---8---8----10---10---10---10----10---10---10---10----------|
Bb|--8---8---8---8----8---8---8---8----10---10---10---10----10---10---10---10----------|
                                                                                       |
Pre Chorus: Guitar 2 (Distorted) PLAY 1 TIME                                           |
 C|------------------------------------------------------------------------------------|
 G|------------------------------------------------------------------------------------|
Eb|-10101010--10101010--10101010--10101010--12121212--12121212--12121212--12121212-----|
Bb|--x-x-x-x---x-x-x-x---x-x-x-x---x-x-x-x---x-x-x-x---x-x-x-x---x-x-x-x--x-x-x-x------|
 F|--8-8-8-8---8-8-8-8---8-8-8-8---8-8-8-8--10101010--10101010--10101010--10101010-----|
Bb|------------------------------------------------------------------------------------|

Chorus: Guitar 1 (Distorted) PLAY ENTIRE CHORUS 2 TIMES
 C|------------------------------------------------------------------------------------|
 G|------------------------------------------------------------------------------------|
Eb|--14--14---14--14----14--14---14--14----14--14---14--14----14--14---14--14----------|
Bb|--12--12---12--12----12--12---12--12----12--12---12--12----12--12---12--12----------|
 F|--12--12---12--12----12--12---12--12----12--12---12--12----12--12---12--12----------|
Bb|--12--12---12--12----12--12---12--12----12--12---12--12----12--12---12--12----------|
                                                                                       |
Chorus: Guitar 2 (Distorted)                                                           |
 C|------------------------------------------------------------------------------------|
 G|------------------------------------------------------------------------------------|
Eb|--14--14---14--14----14--14---14--14----14--14---14--14----14--14---14--14----------|
Bb|---x---x----x---x-----x---x----x---x-----x---x----x---x-----x---x----x---x----------|
 F|--12--12---12--12----12--12---12--12----12--12---12--12----12--12---12--12----------|
Bb|------------------------------------------------------------------------------------|

Chorus: Guitar 1 (Distorted)
 C|------------------------------------------------------------------------------------|
 G|--10--10--10--10---10--10--10--10---------------------------------------------------|
Eb|--10--10--10--10---10--10--10--10---12---12---12---12----12---12---12---12----------|
Bb|--8---8---8---8----8---8---8---8----10---10---10---10----10---10---10---10----------|
 F|--8---8---8---8----8---8---8---8----10---10---10---10----10---10---10---10----------|
Bb|--8---8---8---8----8---8---8---8----10---10---10---10----10---10---10---10----------|
                                                                                       |
Chorus: Guitar 2 (Distorted)                                                           |
 C|------------------------------------------------------------------------------------|
 G|------------------------------------------------------------------------------------|
Eb|--14--14---14--14----14--14---14--14----12--12---12--12----12--12---12--12----------|
Bb|---x---x----x---x-----x---x----x---x-----x---x----x---x-----x---x----x---x----------|
 F|--12--12---12--12----12--12---12--12----10--10---10--10----10--10---10--10----------|
Bb|------------------------------------------------------------------------------------|

Chorus: Guitar 1 (Distorted)
 C|------------------------------------------------------------------------------------|
 G|------------------------------------------------------------------------------------|
Eb|--14--14---14--14----14--14---14--14----14--14---14--14----14--14---14--14----------|
Bb|--12--12---12--12----12--12---12--12----12--12---12--12----12--12---12--12----------|
 F|--12--12---12--12----12--12---12--12----12--12---12--12----12--12---12--12----------|
Bb|--12--12---12--12----12--12---12--12----12--12---12--12----12--12---12--12----------|
                                                                                       |
Chorus: Guitar 2 (Distorted)                                                           |
 C|------------------------------------------------------------------------------------|
 G|------------------------------------------------------------------------------------|
Eb|--11--11---11--11----11--11---11--11----11--11---11--11----11--11---11--11----------|
Bb|---x---x----x---x-----x---x----x---x-----x---x----x---x-----x---x----x---x----------|
 F|---9---9----9---9-----9---9----9---9-----9---9----9---9-----9---9----9---9----------|
Bb|------------------------------------------------------------------------------------|

Chorus: Guitar 1 (Distorted)
 C|------------------------------------------------------------------------------------|
 G|--10--10--10--10---10--10--10--10---------------------------------------------------|
Eb|--10--10--10--10---10--10--10--10---12---12---12---12----12---12---12---12----------|
Bb|--8---8---8---8----8---8---8---8----10---10---10---10----10---10---10---10----------|
 F|--8---8---8---8----8---8---8---8----10---10---10---10----10---10---10---10----------|
Bb|--8---8---8---8----8---8---8---8----10---10---10---10----10---10---10---10----------|
                                                                                       |
Chorus: Guitar 2 (Distorted)                                                           |
 C|------------------------------------------------------------------------------------|
 G|------------------------------------------------------------------------------------|
Eb|--14--14---14--14----14--14---14--14----12--12---12--12----12--12---12--12----------|
Bb|---x---x----x---x-----x---x----x---x-----x---x----x---x-----x---x----x---x----------|
 F|--12--12---12--12----12--12---12--12----10--10---10--10----10--10---10--10----------|
Bb|------------------------------------------------------------------------------------|

Post Chorus: Guitars 1 & 2 (Distorted) PLAY 2 TIMES
 C|------------------------------------------------------------------------------------|
 G|------------------------------------------------------------------------------------|
Eb|------------------------------------------------------------------------------------|
Bb|------------------------------------------------------------------------------------|
 F|--------------------5----------3--6----------------------5--------5--6--3-----------|
Bb|--0---1--0---1-0-1----4-0-4-7----------0---1--0---1-0-1----4-0-4--------------------|

Verse 2: Guitar 1 (Distorted)
 C|------------------------------------------------------------------------------------|
 G|------------------------------------------------------------------------------------|
Eb|------------------------------------------------------------------------------------|
Bb|------------------------------------------------------------------------------------|
 F|------------------------------------------------------------------------------------|
Bb|-0-10-0-12-0-12-10-0-13/12-0-12-10-0-10-12-0-10-0-12-0-12-10-0-13/12-0-12-10-0-10-12|
     pmpmpmpmpmpmpmpmpmpmpmpmpmpmpmpmpmpmpmpmpmpmpmpmpmpmpmpmpmpmpmpmpmpmpmpmpmpmpmpmpm|
                                                                                       |
Verse 2: Guitar 2 (Distorted)                                                          |
 C|------------------------------------------------------------------------------------|
 G|----------------------------------------10----------------------------11------------|
Eb|--7---------------------------------------------------------------------------------|
Bb|------------------------------------------------------------------------------------|
 F|------------------------------------------------------------------------------------|
Bb|------------------------------------------------------------------------------------|

Verse 2: Guitar 1 (Distorted)
 C|------------------------------------------------------------------------------------|
 G|------------------------------------------------------------------------------------|
Eb|------------------------------------------------------------------------------------|
Bb|-----------------------------------------------1----0---0--0---0--0--0---0--0--1----|
 F|-----------------------------------------------1----0---0--0---0--0--0---0--0--1----|
Bb|--0-10-0-12-0-12-10-0-13/12-0-12-10-0----------1----0---0--0---0--0--0---0--0--1----|
     pmpmpmpmpmpmpmpmpmpmpmpmpmpmpmpmpmpm                                              |
                                                                                       |
Verse 2: Guitar 2 (Distorted)                                                          |
 C|------------------------------------------------------------------------------------|
 G|--8---------------------------------------------------------------------------------|
Eb|------------------------------------------------------------------------------------|
Bb|-----------------------------------------------1----0---0--0---0--0--0---0--0--1----|
 F|-----------------------------------------------1----0---0--0---0--0--0---0--0--1----|
Bb|-----------------------------------------------1----0---0--0---0--0--0---0--0--1----|

Verse 2: Guitar 1 (Distorted)
 C|------------------------------------------------------------------------------------|
 G|------------------------------------------------------------------------------------|
Eb|------------------------------------------------------------------------------------|
Bb|------------------------------------------------------------------------------------|
 F|------------------------------------------------------------------------------------|
Bb|-0-10-0-12-0-12-10-0-13/12-0-12-10-0-10-12-0-10-0-12-0-12-10-0-13/12-0-12-10-0-10-12|
     pmpmpmpmpmpmpmpmpmpmpmpmpmpmpmpmpmpmpmpmpmpmpmpmpmpmpmpmpmpmpmpmpmpmpmpmpmpmpmpmpm|
                                                                                       |
Verse 2: Guitar 2 (Distorted)                                                          |
 C|------------------------------------------------------------------------------------|
 G|----------------------------------------10----------------------------11------------|
Eb|--7---------------------------------------------------------------------------------|
Bb|------------------------------------------------------------------------------------|
 F|------------------------------------------------------------------------------------|
Bb|------------------------------------------------------------------------------------|

Verse 2: Guitar 1 (Distorted)
 C|------------------------------------------------------------------------------------|
 G|------------------------------------------------------------------------------------|
Eb|------------------------------------------------------------------------------------|
Bb|-----------------------------------------------1-------0--0---0--0---0--1--0--3-----|
 F|-----------------------------------------------1---0h1-0--0---0--0---0--1--0--3-----|
Bb|--0-10-0-12-0-12-10-0-13/12-0-12-10-0----------1---0h1-0--0---0--0---0--1--0--3-----|
     pmpmpmpmpmpmpmpmpmpmpmpmpmpmpmpmpmpm                                              |
                                                                                       |
Verse 2: Guitar 2 (Distorted)                                                          |
 C|------------------------------------------------------------------------------------|
 G|--8---------------------------------------------------------------------------------|
Eb|------------------------------------------------------------------------------------|
Bb|-----------------------------------------------1-------0--0---0--0---0--1--0--3-----|
 F|-----------------------------------------------1---0h1-0--0---0--0---0--1--0--3-----|
Bb|-----------------------------------------------1---0h1-0--0---0--0---0--1--0--3-----|

Pre Chorus: Guitar 1 (Distorted) PLAY 2 TIMES
 C|------------------------------------------------------------------------------------|
 G|------------------------------------------------------------------------------------|
Eb|--10--10--10--10---10--10--10--10---12---12---12---12----12---12---12---12----------|
Bb|--8---8---8---8----8---8---8---8----10---10---10---10----10---10---10---10----------|
 F|--8---8---8---8----8---8---8---8----10---10---10---10----10---10---10---10----------|
Bb|--8---8---8---8----8---8---8---8----10---10---10---10----10---10---10---10----------|
                                                                                       |
Pre Chorus: Guitar 2 (Distorted) PLAY 2 TIMES                                          |
 C|------------------------------------------------------------------------------------|
 G|--6-6-6-6--6-6-6-6--6-6-6-6--10-10-10-10--8-8-8-8--8-8-8-8--8-8-8-8-10-10-10-10-----|
Eb|--x-x-x-x--x-x-x-x--x-x-x-x---x--x--x--x--x-x-x-x--x-x-x-x--x-x-x-x--x--x--x--x-----|
Bb|--3-3-3-3--3-3-3-3--3-3-3-3---7--7--7--7--5-5-5-5--5-5-5-5--5-5-5-5--7--7--7--7-----|
 F|------------------------------------------------------------------------------------|
Bb|------------------------------------------------------------------------------------|

Pre Chorus: Guitar 1 (Distorted)
 C|------------------------------------------------------------------------------------|
 G|------------------------------------------------------------------------------------|
Eb|------------------------------------------------------------------------------------|
Bb|--0---0----0---0-----0---0----0---0-----0---0----0---0-----0---0----0---0-----------|
 F|--0---0----0---0-----0---0----0---0-----0---0----0---0-----0---0----0---0-----------|
Bb|--0---0----0---0-----0---0----0---0-----0---0----0---0-----0---0----0---0-----------|
                                                                                       |
Pre Chorus: Guitar 2 (Distorted)                                                       |
 C|------------------------------------------------------------------------------------|
 G|------------------------------------------------------------------------------------|
Eb|-11111111--11111111--11111111--11111111--7-7-7-7--7-7-7-7--7-7-7-7--9-9-9-9---------|
Bb|--x-x-x-x---x-x-x-x---x-x-x-x---x-x-x-x--x-x-x-x--x-x-x-x--x-x-x-x--x-x-x-x---------|
 F|--9-9-9-9---9-9-9-9---9-9-9-9---9-9-9-9--5-5-5-5--5-5-5-5--5-5-5-5--7-7-7-7---------|
Bb|------------------------------------------------------------------------------------|

Pre Chorus: Guitar 1 (Distorted) PLAY 1 TIME
 C|------------------------------------------------------------------------------------|
 G|------------------------------------------------------------------------------------|
Eb|--10--10--10--10---10--10--10--10---12---12---12---12----12---12---12---12----------|
Bb|--8---8---8---8----8---8---8---8----10---10---10---10----10---10---10---10----------|
 F|--8---8---8---8----8---8---8---8----10---10---10---10----10---10---10---10----------|
Bb|--8---8---8---8----8---8---8---8----10---10---10---10----10---10---10---10----------|
                                                                                       |
Pre Chorus: Guitar 2 (Distorted) PLAY 1 TIME                                           |
 C|------------------------------------------------------------------------------------|
 G|------------------------------------------------------------------------------------|
Eb|-10101010--10101010--10101010--10101010--12121212--12121212--12121212--12121212-----|
Bb|--x-x-x-x---x-x-x-x---x-x-x-x---x-x-x-x---x-x-x-x---x-x-x-x---x-x-x-x--x-x-x-x------|
 F|--8-8-8-8---8-8-8-8---8-8-8-8---8-8-8-8--10101010--10101010--10101010--10101010-----|
Bb|------------------------------------------------------------------------------------|

Chorus: Guitar 1 (Distorted) PLAY ENTIRE CHORUS 2 TIMES
 C|------------------------------------------------------------------------------------|
 G|------------------------------------------------------------------------------------|
Eb|--14--14---14--14----14--14---14--14----14--14---14--14----14--14---14--14----------|
Bb|--12--12---12--12----12--12---12--12----12--12---12--12----12--12---12--12----------|
 F|--12--12---12--12----12--12---12--12----12--12---12--12----12--12---12--12----------|
Bb|--12--12---12--12----12--12---12--12----12--12---12--12----12--12---12--12----------|
                                                                                       |
Chorus: Guitar 2 (Distorted)                                                           |
 C|------------------------------------------------------------------------------------|
 G|------------------------------------------------------------------------------------|
Eb|--14--14---14--14----14--14---14--14----14--14---14--14----14--14---14--14----------|
Bb|---x---x----x---x-----x---x----x---x-----x---x----x---x-----x---x----x---x----------|
 F|--12--12---12--12----12--12---12--12----12--12---12--12----12--12---12--12----------|
Bb|------------------------------------------------------------------------------------|

Chorus: Guitar 1 (Distorted)
 C|------------------------------------------------------------------------------------|
 G|--10--10--10--10---10--10--10--10---------------------------------------------------|
Eb|--10--10--10--10---10--10--10--10---12---12---12---12----12---12---12---12----------|
Bb|--8---8---8---8----8---8---8---8----10---10---10---10----10---10---10---10----------|
 F|--8---8---8---8----8---8---8---8----10---10---10---10----10---10---10---10----------|
Bb|--8---8---8---8----8---8---8---8----10---10---10---10----10---10---10---10----------|

Chorus: Guitar 2 (Distorted)                                                           |
 C|------------------------------------------------------------------------------------|
 G|------------------------------------------------------------------------------------|
Eb|--14--14---14--14----14--14---14--14----12--12---12--12----12--12---12--12----------|
Bb|---x---x----x---x-----x---x----x---x-----x---x----x---x-----x---x----x---x----------|
 F|--12--12---12--12----12--12---12--12----10--10---10--10----10--10---10--10----------|
Bb|------------------------------------------------------------------------------------|

Chorus: Guitar 1 (Distorted)
 C|------------------------------------------------------------------------------------|
 G|------------------------------------------------------------------------------------|
Eb|--14--14---14--14----14--14---14--14----14--14---14--14----14--14---14--14----------|
Bb|--12--12---12--12----12--12---12--12----12--12---12--12----12--12---12--12----------|
 F|--12--12---12--12----12--12---12--12----12--12---12--12----12--12---12--12----------|
Bb|--12--12---12--12----12--12---12--12----12--12---12--12----12--12---12--12----------|
                                                                                       |
Chorus: Guitar 2 (Distorted)                                                           |
 C|------------------------------------------------------------------------------------|
 G|------------------------------------------------------------------------------------|
Eb|--11--11---11--11----11--11---11--11----11--11---11--11----11--11---11--11----------|
Bb|---x---x----x---x-----x---x----x---x-----x---x----x---x-----x---x----x---x----------|
 F|---9---9----9---9-----9---9----9---9-----9---9----9---9-----9---9----9---9----------|
Bb|------------------------------------------------------------------------------------|

Chorus: Guitar 1 (Distorted)
 C|------------------------------------------------------------------------------------|
 G|--10--10--10--10---10--10--10--10---------------------------------------------------|
Eb|--10--10--10--10---10--10--10--10---12---12---12---12----12---12---12---12----------|
Bb|--8---8---8---8----8---8---8---8----10---10---10---10----10---10---10---10----------|
 F|--8---8---8---8----8---8---8---8----10---10---10---10----10---10---10---10----------|
Bb|--8---8---8---8----8---8---8---8----10---10---10---10----10---10---10---10----------|
                                                                                       |
Chorus: Guitar 2 (Distorted)                                                           |
 C|------------------------------------------------------------------------------------|
 G|------------------------------------------------------------------------------------|
Eb|--14--14---14--14----14--14---14--14----12--12---12--12----12--12---12--12----------|
Bb|---x---x----x---x-----x---x----x---x-----x---x----x---x-----x---x----x---x----------|
 F|--12--12---12--12----12--12---12--12----10--10---10--10----10--10---10--10----------|
Bb|------------------------------------------------------------------------------------|

Bridge: Guitar 1 (Distorted)
 C|------------------------------------------------------------------------------------|
 G|------------------------------------------------------------------------------------|
Eb|------------------------------------------------------------------------------------|
Bb|------------------------------------------------------------------------------------|
 F|--3------------0-----------10---------0------0--------------------------------------|
Bb|--3------------0-----------10---------0------0----10---7----5----7------------------|
                                                                                       |
Bridge: Guitar 2 (Distorted)                                                           |
 C|-----------------8----------10---8--------------------------------------------------|
 G|--3---7---8---7------8---7----------11---10--------10b(11)r10---------10------------|
Eb|----------------------------------------------12-----------------12-----------------|
Bb|------------------------------------------------------------------------------------|
 F|------------------------------------------------------------------------------------|
Bb|------------------------------------------------------------------------------------|

Bridge: Guitar 1 (Distorted)
 C|------------------------------------------------------------------------------------|
 G|------------------------------------------------------------------------------------|
Eb|------------------------------------------------------------------------------------|
Bb|------------------------------------------------------------------------------------|
 F|---8--8--8--8--8--8--8--8--3--3--3--3--7--7--7--7--3----------0---------10----------|
Bb|---8--8--8--8--8--8--8--8--3--3--3--3--7--7--7--7--3----------0---------10----------|
                                                                                       |
Bridge: Guitar 2 (Distorted)                                                           |
 C|----------------------------------------------------------------8--------10--8------|
 G|--11-11-11-11-10-10-10-10--8--8--8--8-10-10-10-10--3---7--8--7-----8--7-------------|
Eb|---x--x--x--x--x--x--x--x--x--x--x--x--x--x--x--x-----------------------------------|
Bb|---8--8--8--8--7--7--7--7--5--5--5--5--7--7--7--7-----------------------------------|
 F|------------------------------------------------------------------------------------|
Bb|------------------------------------------------------------------------------------|

Bridge: Guitar 1 (Distorted)
 C|------------------------------------------------------------------------------------|
 G|------------------------------------------------------------------------------------|
Eb|------------------------------------------------------------------------------------|
Bb|---------------------------------------------------------------------5--5--5--5-----|
 F|----0------0-----------------------8--8--8--8--8--8--8--8-3--3--3--3-3--3--3--3-----|
Bb|----0------0----10---7----5----7---8--8--8--8--8--8--8--8-3--3--3--3----------------|
                                                                                       |
Bridge: Guitar 2 (Distorted)                                                           |
 C|----------------12b(13)r--10--12--13-13-13-13-12-12-12-12-----------12-12-12-12-----|
 G|--11---10------------------------------------------------13-13-13-13----------------|
Eb|------------12----------------------------------------------------------------------|
Bb|------------------------------------------------------------------------------------|
 F|------------------------------------------------------------------------------------|
Bb|------------------------------------------------------------------------------------|

Bridge: Guitar 1 (Distorted)
 C|------------------------------------------------------------------------------------|
 G|------------------------------------------------------------------------------------|
Eb|------------------------------------------------------------------------------------|
Bb|------------------------------------------------------------------------------------|
 F|--0--0--0--1---0--------------------------------------------------------------------|
Bb|--0--0--0--1---0--------------------------------------------------------------------|
                                                                                       |
Bridge: Guitar 2 (Distorted)                                                           |
 C|--10-10-10-11-10--------------------------------------------------------------------|
 G|------------------------------------------------------------------------------------|
Eb|------------------------------------------------------------------------------------|
Bb|------------------------------------------------------------------------------------|
 F|------------------------------------------------------------------------------------|
Bb|------------------------------------------------------------------------------------|

Chorus 2: Guitar 1 (Distorted)
 C|------------------------------------------------------------------------------------|
 G|--10--10--10--10---10--10--10--10---------------------------------------------------|
Eb|--10--10--10--10---10--10--10--10---12---12---12---12----12---12---12---12----------|
Bb|--8---8---8---8----8---8---8---8----10---10---10---10----10---10---10---10----------|
 F|--8---8---8---8----8---8---8---8----10---10---10---10----10---10---10---10----------|
Bb|--8---8---8---8----8---8---8---8----10---10---10---10----10---10---10---10----------|
                                                                                       |
Chorus 2: Guitar 2 (Distorted)                                                         |
 C|------------------------------------------------------------------------------------|
 G|------------------------------------------------------------------------------------|
Eb|--14--14---14--14----14--14---14--14----12--12---12--12----12--12---12--12----------|
Bb|---x---x----x---x-----x---x----x---x-----x---x----x---x-----x---x----x---x----------|
 F|--12--12---12--12----12--12---12--12----10--10---10--10----10--10---10--10----------|
Bb|------------------------------------------------------------------------------------|

Chorus 2: Guitar 1 (Distorted)
 C|------------------------------------------------------------------------------------|
 G|------------------------------------------------------------------------------------|
Eb|--14--14---14--14----14--14---14--14----14--14---14--14----14--14---14--14----------|
Bb|--12--12---12--12----12--12---12--12----12--12---12--12----12--12---12--12----------|
 F|--12--12---12--12----12--12---12--12----12--12---12--12----12--12---12--12----------|
Bb|--12--12---12--12----12--12---12--12----12--12---12--12----12--12---12--12----------|
                                                                                       |
Chorus 2: Guitar 2 (Distorted)                                                         |
 C|------------------------------------------------------------------------------------|
 G|------------------------------------------------------------------------------------|
Eb|--11--11---11--11----11--11---11--11----11--11---11--11----11--11---11--11----------|
Bb|---x---x----x---x-----x---x----x---x-----x---x----x---x-----x---x----x---x----------|
 F|---9---9----9---9-----9---9----9---9-----9---9----9---9-----9---9----9---9----------|
Bb|------------------------------------------------------------------------------------|

Chorus: Guitar 1 (Distorted)
 C|------------------------------------------------------------------------------------|
 G|--10--10--10--10---10--10--10--10---------------------------------------------------|
Eb|--10--10--10--10---10--10--10--10---12---12---12---12----12---12---12---12----------|
Bb|--8---8---8---8----8---8---8---8----10---10---10---10----10---10---10---10----------|
 F|--8---8---8---8----8---8---8---8----10---10---10---10----10---10---10---10----------|
Bb|--8---8---8---8----8---8---8---8----10---10---10---10----10---10---10---10----------|

Chorus: Guitar 2 (Distorted)                                                           |
 C|------------------------------------------------------------------------------------|
 G|------------------------------------------------------------------------------------|
Eb|--14--14---14--14----14--14---14--14----12--12---12--12----12--12---12--12----------|
Bb|---x---x----x---x-----x---x----x---x-----x---x----x---x-----x---x----x---x----------|
 F|--12--12---12--12----12--12---12--12----10--10---10--10----10--10---10--10----------|
Bb|------------------------------------------------------------------------------------|

Chorus: Guitar 1 (Distorted) PLAY ENTIRE CHORUS 2 TIMES
 C|------------------------------------------------------------------------------------|
 G|------------------------------------------------------------------------------------|
Eb|--14--14---14--14----14--14---14--14----14--14---14--14----14--14---14--14----------|
Bb|--12--12---12--12----12--12---12--12----12--12---12--12----12--12---12--12----------|
 F|--12--12---12--12----12--12---12--12----12--12---12--12----12--12---12--12----------|
Bb|--12--12---12--12----12--12---12--12----12--12---12--12----12--12---12--12----------|
                                                                                       |
Chorus: Guitar 2 (Distorted)                                                           |
 C|------------------------------------------------------------------------------------|
 G|------------------------------------------------------------------------------------|
Eb|--14--14---14--14----14--14---14--14----14--14---14--14----14--14---14--14----------|
Bb|---x---x----x---x-----x---x----x---x-----x---x----x---x-----x---x----x---x----------|
 F|--12--12---12--12----12--12---12--12----12--12---12--12----12--12---12--12----------|
Bb|------------------------------------------------------------------------------------|

Chorus: Guitar 1 (Distorted)
 C|------------------------------------------------------------------------------------|
 G|--10--10--10--10---10--10--10--10---------------------------------------------------|
Eb|--10--10--10--10---10--10--10--10---12---12---12---12----12---12---12---12----------|
Bb|--8---8---8---8----8---8---8---8----10---10---10---10----10---10---10---10----------|
 F|--8---8---8---8----8---8---8---8----10---10---10---10----10---10---10---10----------|
Bb|--8---8---8---8----8---8---8---8----10---10---10---10----10---10---10---10----------|
                                                                                       |
Chorus: Guitar 2 (Distorted)                                                           |
 C|------------------------------------------------------------------------------------|
 G|------------------------------------------------------------------------------------|
Eb|--14--14---14--14----14--14---14--14----12--12---12--12----12--12---12--12----------|
Bb|---x---x----x---x-----x---x----x---x-----x---x----x---x-----x---x----x---x----------|
 F|--12--12---12--12----12--12---12--12----10--10---10--10----10--10---10--10----------|
Bb|------------------------------------------------------------------------------------|

Chorus: Guitar 1 (Distorted)
 C|------------------------------------------------------------------------------------|
 G|------------------------------------------------------------------------------------|
Eb|--14--14---14--14----14--14---14--14----14--14---14--14----14--14---14--14----------|
Bb|--12--12---12--12----12--12---12--12----12--12---12--12----12--12---12--12----------|
 F|--12--12---12--12----12--12---12--12----12--12---12--12----12--12---12--12----------|
Bb|--12--12---12--12----12--12---12--12----12--12---12--12----12--12---12--12----------|
                                                                                       |
Chorus: Guitar 2 (Distorted)                                                           |
 C|------------------------------------------------------------------------------------|
 G|------------------------------------------------------------------------------------|
Eb|--11--11---11--11----11--11---11--11----11--11---11--11----11--11---11--11----------|
Bb|---x---x----x---x-----x---x----x---x-----x---x----x---x-----x---x----x---x----------|
 F|---9---9----9---9-----9---9----9---9-----9---9----9---9-----9---9----9---9----------|
Bb|------------------------------------------------------------------------------------|

Chorus: Guitar 1 (Distorted)
 C|------------------------------------------------------------------------------------|
 G|--10--10--10--10---10--10--10--10---------------------------------------------------|
Eb|--10--10--10--10---10--10--10--10---12---12---12---12----12---12---12---12----------|
Bb|--8---8---8---8----8---8---8---8----10---10---10---10----10---10---10---10----------|
 F|--8---8---8---8----8---8---8---8----10---10---10---10----10---10---10---10----------|
Bb|--8---8---8---8----8---8---8---8----10---10---10---10----10---10---10---10----------|
                                                                                       |
Chorus: Guitar 2 (Distorted)                                                           |
 C|------------------------------------------------------------------------------------|
 G|------------------------------------------------------------------------------------|
Eb|--14--14---14--14----14--14---14--14----12--12---12--12----12--12---12--12----------|
Bb|---x---x----x---x-----x---x----x---x-----x---x----x---x-----x---x----x---x----------|
 F|--12--12---12--12----12--12---12--12----10--10---10--10----10--10---10--10----------|
Bb|------------------------------------------------------------------------------------|

Outro: Guitars 1 & 2 (Distorted)
 C|------------------------------------------------------------------------------------|
 G|------------------------------------------------------------------------------------|
Eb|------------------------------------------------------------------------------------|
Bb|------------------------------------------------------------------------------------|
 F|--1--0--0--0----1--0--0----0---0---0-0----------------------------------------------|
Bb|--1--0--0--0----1--0--0----0---0---0-0----------------------------------------------|

Finished
comments
print report bad tab
12 comments total. Showing first comments.
0 reply
Star_powa wrote on October 19 2009, 04:59 pm

Hey man you think you could tab out Hopeless and Without You as well? Anthem of the Angels would be great as well, since the tab already on UG is not complete. Keep up with the awesome tabbing!

0 reply
ambient203 wrote on October 20 2009, 12:20 am

what else should one expect, this guy is awesome. excellent work again UB, tried at playing the solo sounds sweet. keep up the great work man.

0 reply
waze wrote on January 19 2010, 09:21 am

for chorus you could use

C------
G------
Eb--3---
Bb--3---
F--1--- and so on -->
Bb------

I think you get the idea!
But yeah, otherwise really good tab!

I want to post or [tab]
guest
You may want to rate the tab now too:
select rating
Please do not post tabs as comments. Select "correction" instead!