Oops, an error
Loading. Please wait.

Phobia Bass Tab

5,141 views 3 this week
5 commentsread comments
1 2 3 4 5
excellent!
x 5
add to favorites launch autoscroll
font size
0
reset
Autoscroll
+/-
esc
set tempo
stop
Contributor
WARNING: You are trying to view
                                    content from Ultimate-Guitar.com
                                    in an unauthorized application,
                                    which is prohibited.

                                    Please use an official Ultimate
                                    Guitar Tabs application for iPhone,
                                    iPad or Android to access legitimate
                                    chords, guitar, bass, and drum tabs
                                    from Ultimate-Guitar.com database.

                                    Type "ultimate guitar tabs" in Apple
                                    App Store's or Android Market's
                                    search to find the application.
“Phobia” – Breaking Benjamin
Bassist – Mark James
Release Date – 8/8/06

I started making these tabs around May and I was determined to make an album tab for it
fortunately I got some help with my tabbing skills by expert Breaking Benjamin tabber U B
Band and together with help from _Ronnie_ we accomplished just that, this took us a long 
to make, a big thank you goes out to U B The Band and _Ronnie_. I hope you all enjoy it

Song List, Tuning, Tabber

1.  Intro, (A#, F, A#, D#) U B The Band
2.  The Diary of Jane, (A#, F, A#, D#) Bass Pants, U B The Band
3.  Breath, (A#, F, A#, D#) Bass Pants and _Ronnie_
4.  You, (E, A, D, G) Bass Pants
5.  Evil Angel, (A#, F, A#, D#) Bass Pants
6.  Until The End, (A#, F, A#, D#) U B The Band and Bass Pants
7.  Dance With The Devil, (A#, F, A#, D#) Bass Pants
8.  Topless, (Db, Ab, Db, Gb) Bass Pants
9.  Here We Are, (A#, F, A#, D#) U B The Band
10. Unknown Soldier, (C, G, C, F) _Ronnie_ and U B The Band
11. Had Enough, (A#, F, A#, D#) Bass Pants
12. You Fight Me, (A#, F, A#, D#) Bass Pants
13. Outro, (A#, F, A#, D#) U B The Band

“Intro”

D#|-----------------------|
A#|-----------------------|
 F|-------1----------1----|
A#|--0----------0---------|

00:35
D#|-----------------------|
A#|-----------------------|
 F|--1-0----------0-1--3--|
A#|-------5-----5---------|

00:43
D#|-----------------------|
A#|-----------------------|
 F|-------1----------1----|
A#|--0----------0---------|

00:57
D#|-----------------------|
A#|-----------------------|
 F|--1-0----------0-1--3--|
A#|-------5-----5---------|

01:06
D#|-----------------------|
A#|-----------------------|
 F|-----------------------|
A#|--0--------------------|


“The Diary of Jane”

Intro: (Mark) 00:05
Eb|----7----------------7--9-10-----------------------------------|
Bb|--0-----------------0--------------8---------------/-----------|
 F|---------------------------------------------------------------|
Bb|---------------------------------8-----------------/-----------|

Bass: 00:17
Eb|----7---7---7h8p7----7---10p9-----7---7---7h8p7-----7---7------|
Bb|--0---0---0--------0---0--------0---0---0---------0---0--------|
 F|---------------------------------------------------------------|
Bb|---------------------------------------------------------------|

Bass: 00:23
Eb|----7---7---7h8p7----7---10p9-----7---7------------------------|
Bb|--0---0---0--------0---0--------0---0---0----------------------|
 F|---------------------------------------------------------------|
Bb|--------------------------------------------8---8---8----------|

Bass: 00:28
Eb|-------------------------------------------------------------------|
Bb|-------------------------------------------------------------------|
 F|------------------3p0-----------------------------3p0--------------|
Bb|--0-0-5p0-0-7p4-0-----0-8p7-0-3p2-0-0-5p0-0-7p4-0-----0-8p7-0-3p2--|

Bass: 00:34
Eb|---------------------------------------------------------------|
Bb|---------------------------------------------------------------|
 F|------------------3p0------------------------------------------|
Bb|--0-0-5p0-0-7p4-0-----0-8p7-0-3p2-0-0-5p0-0-7p4-0--8---8---8---|

Verse 1: 00:40
Eb|---------------------------------------------------------------|
Bb|---------------------------------------------------------------|
 F|---------------------------------------------------------------|
Bb|--0-0--0--0-0----0-0----0-0--0000--0-0----0-0-----5--0-0--8-8--|x2

Chorus: 00:57
Eb|---------------------------------------------------------------|
Bb|-----------------------------------------------------8---------|
 F|--------------------5----5--5---7h8----------------------------|
Bb|--0------0------0---------------------8----8----8-------8--8p7-|

Chorus: 01:03
Eb|---------------------10----------------------------------------|
Bb|-----------------------------------------------------10--------|
 F|--8------8------8---------8----8------7----7----7---------7--7-|
Bb|---------------------------------------------------------------|

Chorus: 01:08
Eb|---------------------------------------------------------------|

Bb|---------------------------------------------------------------|
 F|--1-------1-------1-------1--------3-------3-------3-------3---|
Bb|---------------------------------------------------------------|

Re-tro: 01:14
Eb|---------------------------------------------------------------|
Bb|---------------------------------------------------------------|
 F|------------------3p0------------------------------------------|
Bb|--0-0-5p0-0-7p4-0-----0-8p7-0-3p2-0-0-5p0-0-7p4-0--8---8---8---|

Verse 2: 01:20
Eb|---------------------------------------------------------------|
Bb|---------------------------------------------------------------|
 F|---------------------------------------------------------------|
Bb|--0-0--0--0-0----0-0----0-0--0000--0-0----0-0-----5--0-0--8-8--|

Verse 2: 01:29
Eb|---------------------------------------------------------------|
Bb|---------------------------------------------------------------|
 F|---------------------------------------------------------------|
Bb|--0-0--0--0-0----0-0----0-0--0000--0-0----0-0-----5-------8-8--|

Chorus: (play 2 times) 01:37/01:49                               --|
Eb|---------------------------------------------------------------||
Bb|-----------------------------------------------------8---------||
 F|-------------------5---5--5-----7h8----------------------------||
Bb|--0------0------0---------------------8----8----8-------8--8p7-||
                                                                   |
Chorus: 01:43/01:55                                                |
Eb|---------------------10----------------------------------------||
Bb|-----------------------------------------------------10--------||
 F|--8------8------8---------8----8------7----7----7---------7--7-||
Bb|---------------------------------------------------------------||
                                                                 --|
Chorus: 02:00
Eb|---------------------------------------------------------------|
Bb|---------------------------------------------------------------|
 F|--1-----1-----1-----1--------1-----1-----1-----1-----1---1-----|
Bb|---------------------------------------------------------------|

Chorus: 02:03
Eb|---------------------------------------------------------------|
Bb|---------------------------------------------------------------|
 F|--3-----3-----3-----3--------3-----3-----3-----3-----3---3-----|
Bb|---------------------------------------------------------------|

Bridge: 02:06
Eb|---------------------------------------------------------------|
Bb|---------------------------------------------------------------|
 F|---------------------------------------------------------------|
Bb|--0--0---0---000--000--00--2/3---0--0---0---000--000--000--1---|

Bridge: 02:12
Eb|---------------------------------------------------------------|
Bb|---------------------------------------------------------------|
 F|---------------------------------------------------------------|
Bb|--0--0---0---000--000--00--2/3---00-0-0------8p7-0-5h7-0-3\2---|

Bridge: 02:18
Eb|---------------------------------------------------------------|
Bb|---------------------------------------------------------------|
 F|---------------------------------------------------------------|
Bb|--3-----3-----3-----3-----3------5-----5-----5-----5-----5-----|

Bridge: 02:23
Eb|---------------------------------------------------------------|
Bb|---------------------------------------------------------------|
 F|---------------------------------------------------------------|
Bb|--0--0---0---000--000--00--2\3---0--0---0---000--000--000--5---|

Bridge: 02:29
Eb|---------------------------------------------------------------|
Bb|---------------------------------------------------------------|
 F|---------------------------------------------------------------|
Bb|--3-----3-----3-----3-----3-----3-----5---5---5---8--8p7--5p3--|

Chorus: (play 2 times) 02:35/02:46                               --|
Eb|---------------------------------------------------------------||
Bb|-----------------------------------------------------8---------||
 F|------------------5---5--5--5---7h8----------------------------||
Bb|--0------0------0---------------------8----8----8-------8--8p7-||
                                                                   |
Chorus: 02:41/02:52                                                |
Eb|---------------------10----------------------------------------||
Bb|-----------------------------------------------------10--------||
 F|--8------8------8---------8----8------7----7----7---------7--7-||
Bb|---------------------------------------------------------------||
                                                                 --|
Outro: 02:58
Eb|-------------------------------------------------------------------|
Bb|-------------------------------------------------------------------|
 F|------------------3p0-----------------------------3p0--------------|
Bb|--0-0-5p0-0-7p4-0-----0-8p7-0-3p2-0-0-5p0-0-7p4-0-----0-8p7-0-3p2--|

Outro: 03:04
Eb|-------------------------------------------------------------------|
Bb|-------------------------------------------------------------------|
 F|------------------3p0----------------------------------------------|
Bb|--0-0-5p0-0-7p4-0-----0-8p7-0-3p2-0-0-5p0-0-7p4-0--8---8---8---0---|



“Breath”

Intro
D#|------------------------|
A#|------------------------|
F |--3-3-3-3-3--2-2-2-2-2--|
A#|------------------------|

D#|----------------------------------------------------------|
A#|----------------------------------------------------------|
F |--0-0-0-0--0-0-0---0-0-0-0--0-0-0-----3-3-3-3-3--2--2-----|
A#|----------------------------------------------------------|

Verse 1 
Part 1
D#|----------------------|
A#|------2-2—--2-2---2---|
F |-0-0------0-----0---0-|
A#|----------------------|

Part 2
D#|-----------------1-2-1------|
A#|------2-—--2-2-4-------4----|
F |-0-0-----0------------------|
A#|----------------------------|

Part 3
D#|---------------------------------------------|
A#|-2-2-2-2-2-2-2-2-5-5-5-5-2-2-2-2-2-2-2-5-5-5-|
F |---------------------------------------------|
A#|---------------------------------------------|

Pre-Chorus
D#|------------------------------------------------|
A#|-3-3-3---3-3-3---7-7-7---7-3-7-9--7-7-7--7-7-7--|
F |------------------------------------------------|
A#|------------------------------------------------|

Chorus 1
D#|------------------------------------------------------|
A#|-----------------1-2-3-3-3-3-3--3-3-3-3-3-5-5-5-5-5---|
F |-0-0-0-0-0-0-0-0--------------------------------------|
A#|------------------------------------------------------|

Verse

Pre-Chorus

Chorus 2
D#|-------------------------------------------------|
A#|-------------------------------------------------|
F |-3-3-x-3-3-x-3-3-3--x-3-3-2-0-0-0-x-0-0-x-0-0----|
A#|-----------------------------------------------5-|

D#|------------------------------------------------|
A#|-3-3-3--3-3--3-3--3-3-3--5-5-5--5-5--5-5--5-5-5-|
F |------------------------------------------------|
A#|------------------------------------------------|

Bridge
D#|-------------------------------------------------------------------------------|
A#|-------------------------------------------------------------------------------|
F-|-0-0-0-0-x-0-0-x-x-x-----------------------------------------------------------|
A#|---------------------3-3-3-3-x-3-3-x-x-x--5-5-5-5-x-5-5-x-x-x-3-3-3-3-x-3-3-3--|

D#|-------------------------------------------------------------------|
A#|-------------------------------------------------------------------|
F |-0-0-0-0-0-0-0-0---------------------------------------------------|
A#|-----------------3-3-3-3-3-3-3-3-5-5-5-5-5-5-5-5-5-3-3-3-3-3-3-3-3-|

Chorus 2

Ending
D#|-------------|
A#|-------------|
F |-0-----0-0-2-|
A#|-------------|


“You”

Verse 1 x2
G|------------------------------|
D|------------------------------|
A|------------------------------|
E|---5--5-5-5-5-5--0-0-0-0-0-0--|

Chorus 1 x1
G|---------------------------------------|
D|---------------------------------------|
A|---------------------------------------|
E|---1-111-11-11-1111--3-333-33--3-5-x3--|

G|--------------------------------------|
D|--------------------------------------|
A|--------------------------------------|
E|--1-111-11-11-1111--3-333-33--55-333--|

G|--------------------------------------------|
D|--------------------------------------------|
A|--------------------------------------------|
E|--1-111-11-11-1111--3-333-33--55-555—-1/8---|

“You” x2
G|-----------------------------------------|
D|-----------------------------------------|
A|-----------------------------------------|
E|--5-5-5-5-5--7h8-8-8---2-2-2-2--0-0-0-0--|

Verse 2 x4
G|--------------------------------------------|
D|--------------------------------------------|
A|--------------------------------------------|
E|-0~--2-0-0-x-5h6p0----0—2-0-0-x-4p2p0-------|

Chorus 2 (same as chorus 1)

“You”
G|------------------------------------------------------|
D|-------------------------------------7-5-3------------|
A|-------------------------------------------5-3-2------|
E|-6-6-6-6-6-6-6-6-2-2-2-2-2-2-2-2-2-2-------------4-2--|

G|--------------------------------------------------------------------|
D|--------------------------------------------------------------------|
A|--------------------------------------------------------------------|
E|-6-6-6-6-6-6-6-6-2-2-2-2-2-2-2-2-2-3-3-3-3-3-3-3-3-3-3-3-3-3-3-3-3-3|

“You” Louder x4
G|------------------------------------------------------------|
D|--------------------------------------------7-5-3-----------|
A|-----------------0-0-0-0--------------------------5-3-2-----|
E|-6-6-6-6-6-6-6-6----------2-2-2-2-2-2-2-2---------------2-0-|

Ending
G|-----|
D|-----|
A|-----|
E|-0---|


“Evil Angel”

Intro
G#|---------------------------------------|
A#|---------------------------------------|
F |------------------------------------3--|
A#|0h2-2--5p2-0h2-5p2-0h2-2------3--5-----|

G#|--------------------------------------|
A#|--------------------------------------|
F |--------------------------------------|
A#|0h2-2---5p2-0h2-3p2-0h2-2-----5--3--1-|Whole Thing x2

Verse
G#|--------------------------------------------------------------------|
A#|-----3-5-----------3-5----------------------------------------------|
F|---0------3--6-8-0------3--6-8--------6-3--6-3—-6-6-8--6-3-6--5-3-5--|
A#|--------------------------------------------------------------------|

G#|--------------------------------------------------------------------|
A#|--------------------------------------------------------------------|
F |6-3---6-3-—6-6-8---6-3-6-5-3-5—(go right into the chorus)------------|
A#|---------------^----------------------------------------------------|
	          ^right here go into the other verse part (2nd Verse only)
Chorus 1 x2
G#|-----------------------------------------------------|
A#|-----------------------------------------------------|
F |-----------------------------------------------------|
A#|-2-2-2-2-3-5-0--0-0-0-0-4-5--7-7-7-7-7-------5--0----|

Intro x1
Verse
Other Verse Part
G#|-------------------------------------------------------------------|
A#|-7-9/--10p9h10p9h10---8—8p7h8p7h8----------------------------------|
F |-------------------------------------------------------------------|
A#|-------------------------------------------------------------------|

Chorus 1 x2
Chorus 2 x2
G#|--------------------------------------------------------|
A#|--------------------------------------------------------|
F |--------------------------------------------------------|
A#|-5--5-5-5-5-5-9--9-9-9-9-9-10--10-10-10-10-10---5----0--|

Bridge x3
G#|----------------------------------------------------------|
A#|----------------------------------------------------------|
F |----------------------------------------------------------|
A#|-2-22-2-22-2-22-0h2-5p2-0h2-0-00-0-00-3-33-0h2-5p2-0h2----|

Chorus 3 x2
G#|------------------------------------------------------------------|
A#|------------------------------------------------------------------|
F |------------------------------------------------------------------|
A#|-2-2--2-2--2-2-2--0-0--0-0--0-0-0—-7-7-7-7-7-7-----5--0-----------|

Chorus 2 x2

Outro
G#|---------------------------------------------------------|
A#|---------------------------------------------------------|
F |---------------------------------------------------------|
A#|-0h2-22-0h2-22-0h2-22-0h2-22-0h2-22-0h2-22-0h2-22-0h2----|

“Until The End”

Intro 00:07
D#|-----------------------------------------------------------------|
A#|-----------------------------------------------------------------|
 F|-----------------------------------------------------------------|
A#|--0-------0--0-----0------0322----0-------0--0----0---------0h1--|

Intro 00:14
D#|-------------------------------------------------------------------|
A#|-------------------------------------------------------------------|
 F|---------------------------------------------------------3h5-3h666-|
A#|--0-0--0--0-0-320-0-0--0--320320-0-0--0--0-0--0--0-0--0------------|

Intro: 00:21
D#|-------------------------------------------------------------------|
A#|-----------------------------------------------------------0h2h3---|
 F|-------------------------------------------------------------------|
A#|--0-0--0--0-0-320-0-0--0--320320-0-0--0--0-0--0--0-0--0-0--------0-|

Verse 00:29
D#|--------------------------------------------------------|
A#|--------------------------------------------------------|
 F|--------0-----1----3--1-------------0-----1----3--1-----|
A#|-------------------------0---------------------------0--|

Verse Continued
D#|----------------------------------------------------------|
A#|----------------------------------------------------------|
 F|--------0-----1----3--1-------------0-----1-------33--11--|
A#|-------------------------0--------------------------------|

Chorus 00:57
D#|--------------------------------------------------|
A#|--------------------3-----------------------------|
 F|------------3----5----5--5----0--1---1--3----1----|
A#|--3----3-3----------------------------------------|x2

After Chorus 01:18
D#|-------------------------------------------------------------------|
A#|-----------------------------------------------------------0h2h3---|
 F|-------------------------------------------------------------------|
A#|--0-0--0--0-0-320-0-0--0--320320-0-0--0--0-0--0--0-0--0-0--------0-|

Verse 2 01:27
D#|--------------------------------------------------------|
A#|--------------------------------------------------------|
 F|--------0-----1----3--1-------------0-----1----3--1-----|
A#|-------------------------0---------------------------0--|

Verse 2 Continued
D#|----------------------------------------------------------|
A#|----------------------------------------------------------|
 F|--------0-----1----3--1-------------0-----1-------33--11--|
A#|-------------------------0--------------------------------|

Chorus 01:54
D#|--------------------------------------------------|
A#|--------------------3-----------------------------|
 F|------------3----5----5--5----0--1---1--3----1----|
A#|--3----3-3----------------------------------------|x3

Bridge 02:27
D#|----------------------------|
A#|----------------------------|
 F|---------0------1----3---1--|
A#|--0-------------------------|

Bridge Continued 02:34 *play 2 times*
D#|---------------------------------------||
A#|---------------------------------------||
 F|---------------------------------------||
A#|--0--0--12----10h11p10--7----5h6p5--3--||

D#|---------------------------------------||
A#|---------------------------------------||
 F|---------------------------------------||
A#|--0--0--12----10h12p10--7----6----5----||

Bass during Solo 02:48 *play 2 times*
D#|---------------------------------------|
A#|------3-2------3-2------3-2-----3---2--|
 F|-----------0--------1--------3----1----|
A#|--0------------------------------------|

Chorus 03:02
D#|--------------------------------------------------|
A#|--------------------3-----------------------------|
 F|------------3----5----5--5----0--1---1--3----1----|
A#|--3----3-3----------------------------------------|x5

Outro 03:56
D#|---------------------|
A#|---------------------|
 F|-----------0------1--|
A#|--0------------------|

“Dance With The Devil”

Intro:
|--------------------------------------------------------------------|
|--------------------------------------------------------------------|
|-----—------—-------------------------------------------------------|
|--5-5-5p3-5p3-8p5-3h6---5-5--5p3-5p3-8p5-3h6--5-5--5p3-5p3-8p5-3h6--|

|------------------------------|
|------------------------------|
|------------------------------|
|--5-5—5p3-7-7-7-7-5-5-5-5-----|


Verse play the parenthesis note on the 2nd verse but not the first
|--------------------------------------------------------------------|
|--------------------------------------------------------------------|
|--------------------------------------------------------------------|
|--5---5-5-5-5---0-----0-0-0-0-—2---2-2-2-2-(3)--0---0-0-0-0---------|

|--------------------------------------------------------------------|
|--------------------------------------------------------------------|
|----------------------------------3-3-3-3-3-3-3-3-------------------|
|--7-7-7-7-7-7-7-7-0-0-0-0-0-0-0-0-----------------1-1-1-1-1-1-1-1---|

Chorus (not sure how many times it repeats, 2nd Chorus has the runs)
|--------------------------------------------------------------------------|
|------------------------------7-5-3--------------------------5p3h8p5p3h5--|
|--4-44444--1-11111--------------------4-44444-111111----------------------|
|--------------------3-33333--------------------------3-333333-------------|

Intro
Verse 2(verse one but 16th notes)
Before Chorus 2 
|------------------------------------------------------------------|
|-3-3-5-5-1-1-----------------------------------10h11p10h12p10h12--|
|-------------6-6-6-6-6-6-6---12-12-12-12-12-12--------------------|
|-------------------------------------—----------------------------|

Chorus 2 (same as the first)

Bridge
|--------------------------------------------------------------------|
|--------------------------------------------------------------------|
|--------------------------------------------------------------------|
|--1-11-1--11--3-33-3------------x2---------5-5-5-5-5---7-7-7-7-7----|

Chorus x6
Bridge
Outro: x2
|-----------------------------------|
|-----------------------------------|
|-----------------------------------|
|-2-2-2-2-2-2-2-2-0-0-0-0-0-0-0-0-0-|

“Topless”

Intro (play the note in parenthesis only on the 1st and 3rd time)
Gb|--------------------------------------------------------|
Db|--------------------------------------------------------|
Ab|--------------------------------------------------------|
Db|-0-2--0-2--0-2--0-2-0-2h3-(3)(x4)--2-2--2-2--2-2---(x1)-|

Verse
Gb|---------------------------------------|
Db|---------------------------------------|
Ab|---------------------------------------|
Db|--0-2--0-2-0-2h3-3~-x4---0-2-0-2h3-----|

Gb|--------------------------------------------------------|
Db|--------------------------------------------------------|
Ab|----------------------------------------2-2-2-2-2-2-2-2-|
Db|-2-2--0-2-0-2h3—3~(x4)—2-2---2-2—-2-2-------------------|

Chorus
Gb|----------------------------------------------|
Db|----------------------------------------------|
Ab|--0-0-0-0-0-2-2-2-2-2-3-3-3-3-3-5-5-5-5-5-5-3-|
Db|----------------------------------------------|

Gb|-----------------------------------------------------|
Db|-----------------------------------------------------|
Ab|-----------------------------------------------------|
Db|-0-2--0-2--0-2--0-2-0-2h3~--0-2--0-2--0-2--0-2-0-2h3-| (x2)

Post Chorus
Gb|---------------------------------------------------------|
Db|---------------------------------------------------------|
Ab|---------------------------------------------------------|
Db|-0-2--0-2--0-2--0-2-0-2h3~-(x3)-2-2--2-2--2-2------------|

Verse
Chorus
Post Chorus (Slide at the last note)

Bridge
Gb|---------------------------------|
Db|---------------------------------| x3
Ab|---------------------------------|
Db|-2-0-2-0-5-0-2-0-2-0-7-0-2-0-3-0-|

Gb|---------------------------------|
Db|---------------------------------|
Ab|---------------------------------|
Db|-2-0-2-0-5-0-2-0-2-0--6-7----7-8-|

Gb|---------------------------------|
Db|---------------------------------| x3
Ab|---------------------------------|
Db|-2-0-2-0-5-0-2-0-2-0-7-0-2-0-3-0-|

Gb|-----------------------------------------------|
Db|-----------------------------------------------|
Ab|-----------------------------------------------|
Db|-2-0-2-0-5-0-2-0-2-0--6-7----7-8----4-5----2-3-|

Gb|----------------------|
Db|----------------------| x3
Ab|------------------3-2-|
Db|--0-2---3-2--0-2------|

Gb|--------------------------|
Db|--------------------------|
Ab|--------------------------|
Db|-0-2---3-2---0-2----------|

Chorus and then end with the Post Chorus

“Here We Are”

Intro (Mark): 00:00
D#|-----------------------------------------------|
A#|-----------------------------------------------|
 F|--7--------------------------------------------|
A#|---------------------7---------10--------------|

Intro: 00:07
D#|---------------------------------|
A#|---------------------------------|
 F|--7------------------------------|
A#|---------------------7-------10--|

Verse 1 (Mark): 00:15
D#|-----------------------------------------------|
A#|-----------------------------------------------|
 F|--7--------------------------------------------|
A#|---------------------7---------10--------------|x3

Verse 1: 00:37
D#|---------------------------------|
A#|---------------------------------|
 F|--7------------------------------|
A#|---------------------7-------10--|

Chorus (Mark): 00:43
D#|----------------------------------------------------------|
A#|----------------------------------------------------------|
 F|-------------------5----------6-7-------------------------|
A#|-------5----------------------------------7-------10--10--|


Chorus continued: 00:59
D#|-----------------------------------------------------|
A#|-----------------------------------------------------|
 F|--------------5----------6-7-------------------------|
A#|--5----------------------------------7-------10--10--|


Bass after chorus at 01:13
D#|----------------------------|
A#|----------------------------|
 F|-------------------------3--|
A#|--2---2-0-2-0-2-2-0-7-------|


Verse 2 (Mark): 01:21
D#|-----------------------------------------------|
A#|-----------------------------------------------|
 F|--7--------------------------------------------|
A#|---------------------7---------10--------------|x3

Verse 2 continued: 01:43

D#|---------------------------------|
A#|---------------------------------|
 F|--7------------------------------|
A#|---------------------7-------10--|

Chorus (Mark): 01:49
D#|----------------------------------------------------------|
A#|----------------------------------------------------------|
 F|-------------------5----------6-7-------------------------|
A#|-------5----------------------------------7-------10--10--|

Chorus continued: 02:05
D#|-----------------------------------------------------|
A#|-----------------------------------------------------|
 F|--------------5----------6-7-------------------------|
A#|--5----------------------------------7-------10--10--|

Bridge (Mark): 02:19
D#|---------------------|
A#|---------------------|
 F|---------------------|
A#|--9---------------3--|

Bridge (Mark): 02:27
D#|--------------------------------------------|
A#|--------------------------------------------|
 F|--3---------------0-------------------------|
A#|----------------------------------5----3----|

Bridge continued 02:41
D#|-------------------------------------------------|
A#|-------------------------------------------------|
 F|--3---------------0------------------------------|
A#|----------------------------------5----3----2----|

Bass during Solo: 03:00
D#|-----------------------------------------------------|
A#|-----------------------------------------------------|
 F|--------------5----------6-7-------------------------|
A#|--5----------------------------------7-------10--10--|x2

Chorus (Mark): 03:28
D#|----------------------------------------------------------|
A#|----------------------------------------------------------|
 F|-------------------5----------6-7-------------------------|
A#|-------5----------------------------------7-------10--10--|

Chorus continued: 03:44
D#|-----------------------------------------------------|
A#|-----------------------------------------------------|
 F|--------------5----------6-7-------------------------|
A#|--5----------------------------------7-------10--10--|

Outro (Mark): 03:58
D#|--------------------------------|
A#|--------------------------------|
 F|--------------0-------3---3-----|
A#|--5--------------------------5--|


“Unknown Soldier”

Intro: x2
F|-----------------------------------|
C|-----------------------------------|
G|--------------------------------33-|
C|-8-8-88--8-8-88--0-0-00--0-0-0-----|

Verse: x3
F|--------------------------|
C|--------------------------|
G|--------------------------|
C|--0-----5-----8-----1-----|

Chorus:
F|---------------------------------------------------------------|
C|---------------------------------------------------------------|
G|-------------------------------------------------------------1-|
C|-3-3-33-3-3-33--7-7-77-7-7-77--8-8-88-8-8-88--3-3-33-3-3-33----|

Post-Chorus: (1:04)
F|---r-------------------------------|
C|---e-------------------------------|
G|---s----------------------------33-|
C|---t-----8-8-88--0-0-00--0-0-0-----|

F|-----------------------------------|
C|-----------------------------------|
G|--------------------------------33-|
C|-8-8-88--8-8-88--0-0-00--0-0-0-----|

-->Verse x3

Second Chorus: x2
F|------------------------------------------------------------|
C|------------------------------------------------------------|
G|------------------------------------------------------------|
C|-3-3-33-3-3-33--7-7-77-7-7-77--8-8-88-8-8-88--3-3-33-3-3-33-|

Bridge:
02:14
F|---------------|
C|---------------|
G|--5----7-------|
C|------------8--|

02:21
F|---------------|
C|---------------|
G|--5----0----1--|
C|---------------|

02:29
F|---------------|
C|---------------|
G|--5----3----1--|
C|---------------|

02:37
F|---------------|
C|---------------|
G|--5----0----1--|
C|---------------|

-->Play Second Chorus (2nd and 3rd Choruses are the same)

Outro:
F|----------|
C|----------|
G|----------|
C|--3-------|

“Had Enough”

Intro
D#|----------------------------------------|
A#|----------------------------------------|
F |----------------------------------------|
A#|-2--3-2-0-2—--3-2-0-2-4p3p2p0-----------| x2

D#|-------------------------|
A#|-------------------------|
F |-------------------------|
A#|-1---1h2h3p1---1—--6-----| x2

Verse
D#|---------------------------------|
A#|---------------------------------|
F |---------------------------------|
A#|-6~----8-10-------5~----8-5------| x3

Chorus
D#|--------------------------------------------------------------|
A#|--------------------------------------------------------------|
F |--------------------------------------------------------------|
A#|-4-4-4-4-4-4-4-4-4-7-7-7-7-7-7-7-7-7-9-9-xx-9-9—9-7-7-9-9—0h5-| x2

Intro
Verse
Chorus

Bridge
D#|-----------------------|
A#|-----------------------|
F |-----------------------|
A#|-1---4---9---4---3-----|

Chorus
Intro x2

“You Fight Me”

Intro
G#|------------------|
A#|------------------|
F |------------------|
A#|-0—-2-0-2---0~----| x4

Verse x5
G#|------------------|
A#|------------------|
F |------------------|
A#|-0—-2-0-2---0~----|

G#|--------------------------|
A#|--------------------------|
F |--------------------------|
A#|-0---2-0-2-2--2p0---------|

Pre-Chorus x2 (stop on the ringing 9 the second time
G#|-----------------------------------------------------|
A#|-----------------------------------------------------|
F |-7-7-7—5-7-7-7-7/9~----------------------------------|
A#|--------------------------0---2-0-2—--2p0------------|

Chorus x2 (play the 5’s only on the 2nd round of the chorus)
G#|------------------------------------------------------|
A#|------------------------------------------------------|
F |--------------------------------333-33-3-555-55-5-----|
A#|--222-22-22-2h3--222-22-22-22p1-----------------------|

Verse x2

Pre-Chorus 2
G#|------------------------|
A#|------------------------|
F |-7-7-7-7-7-7-7-7-7/9----|
A#|------------------------|

G#|-------------|
A#|-------------|
F |-5-5---5-8-5-|
A#|-------------|

Break 2
G#|--------------------|
A#|--------------------|
F |-5-5-5-6-8-5-5-5----|
A#|--------------------| x1

Bridge
G#|------------------------------------|
A#|------------------------------------|
F |-3-3-3-3-3-3-3-3-6-6-6-6-6-6-6-6-4\-|
A#|------------------------------------|

Break 2 x1

Bridge x1 but don’t play the last 4

Chorus x4

Verse x2

End

“Outro”

Bass: (Mark)
D#|---------------------------------|
A#|--0----------------0-------------|
 F|----------1----------------1-----|
A#|---------------------------------|

Bass:
D#|---------------------------------|
A#|---------------------------------|
 F|--1-0---------------0-11-1--3-3--|
A#|-------55-5-55-5--5--------------|

Bass:
D#|-----------------------------------|
A#|--0-0-0--0-0-00-0------------------|
 F|------------------1-1-1--1-1-11-1--|
A#|-----------------------------------|

Bass:
D#|-----------------------------------|
A#|--0-0-0--0-0-00-0------------------|
 F|------------------1-1-1--1-1-11-1--|
A#|-----------------------------------|

Bass:
D#|---------------------------------|
A#|---------------------------------|
 F|--1-0---------------0-11-1--3-3--|
A#|-------55-5-55-5--5--------------|

Bass:
D#|-----------------------------------|
A#|--0-0-0--0-0-00-0------------------|
 F|------------------1-1-1--1-1-11-1--|
A#|-----------------------------------|

Bass:
D#|-----------------------------------|
A#|--0-0-0--0-0-00-0------------------|
 F|------------------1-1-1--1-1-11-1--|
A#|-----------------------------------|

Bass:
D#|-----------------------------------|
A#|--0-0-0--0-0-00-0------------------|
 F|------------------1-1-1--1-1-11-1--|
A#|-----------------------------------|

Bass:
D#|-----------------------------------|
A#|--0-0-0--0-0-00-0------------------|
 F|------------------1-1-1--1-1-11-1--|
A#|-----------------------------------|

Bass:
D#|---------------------------------|
A#|---------------------------------|
 F|--1-0---------------0-11-1--3-3--|
A#|-------55-5-55-5--5--------------|

Bass: 01:36
D#|-----|
A#|-----|
 F|-----|
A#|--0--|

THE END!
5 comments total. Showing first comments.
0 reply
Bass Pants wrote on August 20 2007, 12:18 pm

Edit..Intro to Dance With the Devil, should be up soon

+1 reply
__Ronnie__ wrote on August 20 2007, 01:38 pm

Great work on this.

0 reply
jhawk182 wrote on September 9 2008, 06:41 pm

You is totally wrong.

I want to post or [tab]
guest
You may want to rate the tab now too:
select rating
Please do not post tabs as comments. Select "correction" instead!