Oops, an error
Loading. Please wait.

Phobia Tab

ver1
ver1

Album

More versions @911Tabs.com
17,749 views 9 this week
15 commentsread comments
1 2 3 4 5
worth learning
x 12
Autoscroll
+/-
esc
set tempo
stop
Difficulty
novice
Hey! There's an official Ultimate Guitar app which is ideal
for learning songs when you're away from computer. Get the app
WARNING: You are trying to view
                                    content from Ultimate-Guitar.com
                                    in an unauthorized application,
                                    which is prohibited.

                                    Please use an official Ultimate
                                    Guitar Tabs application for iPhone,
                                    iPad or Android to access legitimate
                                    chords, guitar, bass, and drum tabs
                                    from Ultimate-Guitar.com database.

                                    Type "ultimate guitar tabs" in Apple
                                    App Store's or Android Market's
                                    search to find the application.
Phobia (Album) Tab
Breaking Benjamin
Tuning - Bb F Bb Eb G C


1.      Intro

Intro guitar 1: 00:12
 C|---------------------------|
 G|--------------6----5-------|
Eb|----7----5--------------7--|
Bb|--0---00---00---00---00----|
 F|---------------------------|
Bb|---------------------------|

 C|---------------------------|
 G|--------------6----5-------|
Eb|----7----5--------------7--|
Bb|--0---00---00---00---00----|
 F|---------------------------|
Bb|---------------------------|

Guitar 2, Bass and Drums enter

guitar 1: 00:20
 C|-------------------------|
 G|------------6----5-------|
Eb|--7----5--------------7--|
Bb|-------------------------|
 F|-------------------------|
Bb|-------------------------|

guitar 2: 00:20
 C|----------------------|
 G|----------------------|
Eb|----------------------|
Bb|-----7--7--7--7--7h8--|
 F|----------------------|
Bb|--0-------------------|







guitar 1: 00:23
 C|-------------------------|
 G|------------6----5-------|
Eb|--7----5--------------7--|
Bb|-------------------------|
 F|-------------------------|
Bb|-------------------------|

guitar 2 00:23
 C|----------------------|
 G|----------------------|
Eb|----------------------|
Bb|-----7--7--7--7--7h8--|
 F|----------------------|
Bb|--8-------------------|

guitar 1: 00:27
 C|-------------------------|
 G|------------6----5-------|
Eb|--7----5--------------7--|
Bb|-------------------------|
 F|-------------------------|
Bb|-------------------------|

guitar 2: 00:27
 C|----------------------|
 G|----------------------|
Eb|----------------------|
Bb|-----7--7--7--7--7h8--|
 F|----------------------|
Bb|--0-------------------|

guitar 1: 00:31
 C|-------------------------|
 G|------------6----5----8--|
Eb|--7----5-----------------|
Bb|-------------------------|
 F|-------------------------|
Bb|-------------------------|

guitar 2: 00:31
 C|----------------------|
 G|----------------------|
Eb|----------------------|
Bb|-----7--7--7--7--7h8--|
 F|----------------------|
Bb|--8-------------------|

guitar 1: 00:35
 C|-------------------------|
 G|------------6----5-------|
Eb|--7----5--------------7--|
Bb|-------------------------|
 F|-------------------------|
Bb|-------------------------|

guitar 2: 00:34
 C|------------------------|
 G|------------------------|
Eb|------------------------|
Bb|---------8--8--8--8--8--|
 F|------------------------|
Bb|--8-7-5-----------------|

guitar 1: 00:39
 C|--------------------|
 G|--6--5--7--7--6--5--|
Eb|--------------------|
Bb|--------------------|
 F|--------------------|
Bb|--------------------|

guitar 2: 00:38
 C|-----------------------------|
 G|-----------------------------|
Eb|-----------------------------|
Bb|---------10--10------10--10--|
 F|-----------------------------|
Bb|--5-7-8----------10----------|

guitar 1: 00:43
 C|-------------------------|
 G|------------6----5-------|
Eb|--7----5--------------7--|
Bb|-------------------------|
 F|-------------------------|
Bb|-------------------------|







guitar 2: 00:43
 C|----------------------|
 G|----------------------|
Eb|----------------------|
Bb|-----7--7--7--7--7h8--|
 F|----------------------|
Bb|--0-------------------|

guitar 1 stops

guitar 2: 00:46
 C|----------------------|
 G|----------------------|
Eb|----------------------|
Bb|-----7--7--7--7--7h8--|
 F|----------------------|
Bb|--8-------------------|

guitar 2: 00:50
 C|----------------------|
 G|----------------------|
Eb|----------------------|
Bb|-----7--7--7--7--7h8--|
 F|----------------------|
Bb|--0-------------------|

guitar 2: 00:54
 C|----------------------|
 G|----------------------|
Eb|----------------------|
Bb|-----7--7--7--7--7h8--|
 F|----------------------|
Bb|--8-------------------|

guitar 2: 00:57
 C|------------------------|
 G|------------------------|
Eb|------------------------|
Bb|---------8--8--8--8--8--|
 F|------------------------|
Bb|--8-7-5-----------------|






guitar 2: 01:01
 C|-----------------------------|
 G|-----------------------------|
Eb|-----------------------------|
Bb|---------10--10------10--10--|
 F|-----------------------------|
Bb|--5-7-8----------10----------|

guitar 2: 01:06
 C|-----|
 G|-----|
Eb|-----|
Bb|-----|
 F|-----|
Bb|--0--|

2. Diary Of Jane


|-------------------------------|---------------------------------|
|-------------------------------|---------------------------------|
|----14----14----14----14----15-|-----14----14----17----15----14--|
|-12----12----12----12----12----|--12----12----12----12----12-----|
|-------------------------------|---------------------------------|
|-------------------------------|---------------------------------|
Rhythm
|-------------------------------|---------------------------------|
|-------------------------------|---------------------------------|
|-------------------------------|---------------------------------|
|-------------------------------|---------------------------------|
|-------------------------------|---------------------------------|
|-------------------------------|---------------------------------|

Lead
|-------------------------------|---------------------------------|
|-------------------------------|---------------------------------|
|----14----14----14----14----15-|-----14----14----17----15----14--|
|-12----12----12----12----12----|--12----12----12----12----12-----|
|-------------------------------|---------------------------------|
|-------------------------------|---------------------------------|
Rhythm  w/ wah
|-------------------------------|---------------------------------|
|-------------------------------|---------------------------------|
|-------------------------------|---------------------------------|
|-------------------------------|---------------------------------|
|-5-----------------------------|-(5)-----------------------------|
|-------------------------------|---------------------------------|

Lead
|-------------------------------|---------------------------------|
|-------------------------------|---------------------------------|
|----14----14----14----14----15-|-----14----14----17----15----14--|
|-12----12----12----12----12----|--12----12----12----12----12-----|
|-------------------------------|---------------------------------|
|-------------------------------|---------------------------------|
Rhythm  w/ wah
|-------------------------------|---------------------------------|
|-------------------------------|---------------------------------|
|-------------------------------|---------------------------------|
|-------------------------------|---------------------------------|
|-0-----------------------------|-(0)-----------------------------|
|-------------------------------|---------------------------------|


Lead
|-------------------------------|---------------------------------|
|-------------------------------|---------------------------------|
|----14----14----17----15----14-|-----14----14----17----15----14--|
|-12----12----12----12----12----|--12----12----12----12----12-----|
|-------------------------------|---------------------------------|
|-------------------------------|---------------------------------|
Rhythm  w/ wah
|-------------------------------|---------------------------------|
|-------------------------------|---------------------------------|
|-------------------------------|---------------------------------|
|-------------------------------|---------------------------------|
|5-5-5-5-5-5-5-5-5-5-5-5-5-5-5-5|5-5-5-5-5-5-5-5-5-5-5-5-5-5-5-5-5|
|-------------------------------|---------------------------------|

Lead
|-------------------------------|---------------------------------|
|-------------------------------|---------------------------------|
|----14----14----17----15----14-|-----14----14-----14~~~~~~~------|
|-12----12----12----12----12----|--12----12----12-----------------|
|-------------------------------|---------------------------------|
|-------------------------------|---------------------------------|
Rhythm  w/ wah
|-------------------------------|---------------------------------|
|-------------------------------|---------------------------------|
|-------------------------------|---------------------------------|
|-------------------------------|------------------10---10---10---|
|5-5-5-5-5-5-5-5-5-5-5-5-5-5-5-5|5-5-5-5-5-5-5-5----8----8----8---|
|-------------------------------|-------------------8----8----8---|


PRE VERSE

Lead
|-------------------------------|------------------------------|
|-------------------------------|------------------------------|
|----14----14----17----15----14-|-----14----14-----9~~~~~~~----|
|-12----12----12----12----12----|--12----12----12--------------|
|-------------------------------|------------------------------|
|-------------------------------|------------------------------|
Rhythm  w/ wah
|-------------------------------|-------------------------------|
|-------------------------------|-------------------------------|
|-------------------------------|-------------------------------|
|----------------5--------------|----------------5--------------|
|0-0-5p0-0-7p5-0-3-0-0-8p0-0-3\2|0-0-5p0-0-7p5-0-3-0-0-8p0-0-3\2|
|0-0-5p0-0-7p5-0---0-0-8p0-0-3\2|0-0-5p0-0-7p5-0---0-0-8p0-0-3\2|

Lead
|-------------------------------|------------------------------|
|-------------------------------|------------------------------|
|----14----14----17----15----14-|-----14----14-----9~~~~~~~----|
|-12----12----12----12----12----|--12----12----12--------------|
|-------------------------------|------------------------------|
|-------------------------------|------------------------------|
Rhythm  w/ wah
|-------------------------------|-------------------------------|
|-------------------------------|-------------------------------|
|-------------------------------|-----------------5----5----5---|
|----------------5--------------|-----------------3----3----3---|
|0-0-5p0-0-7p5-0-3-0-0-8p0-0-3\2|0-0-5p0-0-7p5-0--1----1----1---|
|0-0-5p0-0-7p5-0---0-0-8p0-0-3\2|0-0-5p0-0-7p5-0----------------|



VERSE

Lead
|-------------------------|-----------------------------|-------------|
|-------------------------|-----------------------------|-------------|
|---------------7-------7-|-------------------7-------7-|-7-------10--| x2
|----------------7-------7|--------------------7-------7|-5--------8--|
|--0-0--0--0-0-----0-0----|0-0--0-0-0-0--0-0-----0-0----|-5---0-0--8--|
|--0-0--0--0-0-----0-0----|0-0--0-0-0-0--0-0-----0-0----|-5---0-0--8--|
PM____________|NH_|PM_|NH_|PM_______________|NH_|PM_|NH_|    PM__|


CHORUS

Lead
|-------------------------------------------------|
|-------------------------------------------------|
|-14-14-14-12-12-12-14-14-14-12-12-12-14-14-12-12-|
|-------------------------------------------------|
|-------------------------------------------------|
|-------------------------------------------------|

|-------------------------------------------------|
|-------------------------------------------------|
|-14-14-14-12-12-12-15-15-15-15-15-15-15-15-15-15-|
|-------------------------------------------------|
|-------------------------------------------------|
|-------------------------------------------------|

|-------------------------------------------------|
|-------------------------------------------------|
|-17-17-17-17-17-17-17-17-17-17-17-17-17-17-17-17-|
|-------------------------------------------------|
|-------------------------------------------------|
|-------------------------------------------------|

|-------------------------------------------------|
|-------------------------------------------------|
|-15-15-15-15-15-15-15-15-15-15-15-15-15-15-15-15-|
|-------------------------------------------------|
|-------------------------------------------------|
|-------------------------------------------------|

|--------------------|--------------------|
|--------------------|--------------------|
|-14---15---17---15--|-14---15---17---15--|
|--------------------|--------------------|
|--------------------|--------------------|
|--------------------|--------------------|


Rhythm
|-------------------------------|-------------------------------|
|-------------------------------|-------------------------------|
|-2---2--2--2---2--2--2---2--2--|10--10-10-10--10-10-10--10-10--|
|-0---0--0--0---0--0--0---0--0--|-8---8--8--8---8--8--8---8--8--|
|-0---0--0--0---0--0--0---0--0--|-8---8--8--8---8--8--8---8--8--|
|-0---0--0--0---0--0--0---0--0--|-8---8--8--8---8--8--8---8--8--|

|-------------------------------|-------------------------------|
|-------------------------------|-------------------------------|
|-5---5--5--5---5--5--5---5--5--|-12--12-12-12--12-12-12--12-12-|
|-3---3--3--3---3--3--3---3--3--|-10--10-10-10--10-10-10--10-10-|
|-3---3--3--3---3--3--3---3--3--|-10--10-10-10--10-10-10--10-10-|
|-3---3--3--3---3--3--3---3--3--|-10--10-10-10--10-10-10--10-10-|

|-------------------------------|-------------------------------|
|-------------------------------|-------------------------------|
|10--10-10-10--10-10-10--10-10--|-12--12-12-12--12-12-12--12-12-|
|-8---8--8--8---8--8--8---8--8--|-10--10-10-10--10-10-10--10-10-|
|-8---8--8--8---8--8--8---8--8--|-10--10-10-10--10-10-10--10-10-|
|-8---8--8--8---8--8--8---8--8--|-10--10-10-10--10-10-10--10-10-|


PRE VERSE

Lead
|-------------------------------|------------------------------|
|-------------------------------|------------------------------|
|----14----14----17----15----14-|-----14----14-----9~~~~~~~----|
|-12----12----12----12----12----|--12----12----12--------------|
|-------------------------------|------------------------------|
|-------------------------------|------------------------------|
Rhythm  w/ wah
|-------------------------------|-------------------------------|
|-------------------------------|-------------------------------|
|-------------------------------|-----------------5----5----5---|
|----------------5--------------|-----------------3----3----3---|
|0-0-5p0-0-7p5-0-3-0-0-8p0-0-3\2|0-0-5p0-0-7p5-0--1----1----1---|
|0-0-5p0-0-7p5-0---0-0-8p0-0-3\2|0-0-5p0-0-7p5-0----------------|


VERSE 2

|-------------------------|-----------------------------|-------------|
|-------------------------|-----------------------------|-------------|
|---------------7-------7-|-------------------7-------7-|-7--------9--|
|--0-0--0--0-0---7-0-0---7|0-0--0-0-0-0--0-0---7-0-0---7|-5---0-0--8--|
|--0-0--0--0-0-----0-0----|0-0--0-0-0-0--0-0-----0-0----|-5---0-0--8--|
|--0-0--0--0-0-----0-0----|0-0--0-0-0-0--0-0-----0-0----|-5---0-0--8--|
PM____________|NH_|PM_|NH_|PM_______________|NH_|PM_|NH_|    PM__|

|-------------------------|-----------------------------|-------------|
|-------------------------|-----------------------------|-------------|
|---------------7-------7-|-------------------7-------7-|-7------1010-|
|--0-0--0--0-0---7-0-0---7|0-0--0-0-0-0--0-0---7-0-0---7|-5-------8-8-|
|--0-0--0--0-0-----0-0----|0-0--0-0-0-0--0-0-----0-0----|-5-------8-8-|
|--0-0--0--0-0-----0-0----|0-0--0-0-0-0--0-0-----0-0----|-5-------8-8-|
PM____________|NH_|PM_|NH_|PM_______________|NH_|PM_|NH_|


CHORUS 2

Lead
|-------------------------------------------------|
|-------------------------------------------------|
|-14-14-14-12-12-12-14-14-14-12-12-12-14-14-12-12-|
|-------------------------------------------------|
|-------------------------------------------------|
|-------------------------------------------------|

|-------------------------------------------------|
|-------------------------------------------------|
|-14-14-14-12-12-12-15-15-15-15-15-15-15-15-15-15-|
|-------------------------------------------------|
|-------------------------------------------------|
|-------------------------------------------------|

|-------------------------------------------------|
|-------------------------------------------------|
|-17-17-17-17-17-17-17-17-17-17-17-17-17-17-17-17-|
|-------------------------------------------------|
|-------------------------------------------------|
|-------------------------------------------------|

|-------------------------------------------------|
|-------------------------------------------------|
|-15-15-15-15-15-15-15-15-15-15-15-15-15-15-15-15-|
|-------------------------------------------------|
|-------------------------------------------------|
|-------------------------------------------------|

|-------------------------------------------------|
|-------------------------------------------------|
|-14-14-14-12-12-12-14-14-14-12-12-12-14-14-12-12-|
|-------------------------------------------------|
|-------------------------------------------------|
|-------------------------------------------------|

|-------------------------------------------------|
|-------------------------------------------------|
|-14-14-14-12-12-12-15-15-15-15-15-15-15-15-15-15-|
|-------------------------------------------------|
|-------------------------------------------------|
|-------------------------------------------------|

|-------------------------------------------------|
|-------------------------------------------------|
|-17-17-17-17-17-17-17-17-17-17-17-17-17-17-17-17-|
|-------------------------------------------------|
|-------------------------------------------------|
|-------------------------------------------------|

|-------------------------------------------------|
|-------------------------------------------------|
|-15-15-15-15-15-15-15-15-15-15-15-15-15-15-15-15-|
|-------------------------------------------------|
|-------------------------------------------------|
|-------------------------------------------------|

|--------------------|--------------------|
|--------------------|--------------------|
|-14---15---17---15--|-14---15---17---15--|
|--------------------|--------------------|
|--------------------|--------------------|
|--------------------|--------------------|


Rhythm
|-------------------------------|-------------------------------|
|-------------------------------|-------------------------------|
|-2---2--2--2---2--2--2---2--2--|10--10-10-10--10-10-10--10-10--|
|-0---0--0--0---0--0--0---0--0--|-8---8--8--8---8--8--8---8--8--|
|-0---0--0--0---0--0--0---0--0--|-8---8--8--8---8--8--8---8--8--|
|-0---0--0--0---0--0--0---0--0--|-8---8--8--8---8--8--8---8--8--|

|-------------------------------|-------------------------------|
|-------------------------------|-------------------------------|
|-5---5--5--5---5--5--5---5--5--|-12--12-12-12--12-12-12--12-12-|
|-3---3--3--3---3--3--3---3--3--|-10--10-10-10--10-10-10--10-10-|
|-3---3--3--3---3--3--3---3--3--|-10--10-10-10--10-10-10--10-10-|
|-3---3--3--3---3--3--3---3--3--|-10--10-10-10--10-10-10--10-10-|

|-------------------------------|-------------------------------|
|-------------------------------|-------------------------------|
|-2---2--2--2---2--2--2---2--2--|10--10-10-10--10-10-10--10-10--|
|-0---0--0--0---0--0--0---0--0--|-8---8--8--8---8--8--8---8--8--|
|-0---0--0--0---0--0--0---0--0--|-8---8--8--8---8--8--8---8--8--|
|-0---0--0--0---0--0--0---0--0--|-8---8--8--8---8--8--8---8--8--|

|-------------------------------|-------------------------------|
|-------------------------------|-------------------------------|
|-5---5--5--5---5--5--5---5--5--|-12--12-12-12--12-12-12--12-12-|
|-3---3--3--3---3--3--3---3--3--|-10--10-10-10--10-10-10--10-10-|
|-3---3--3--3---3--3--3---3--3--|-10--10-10-10--10-10-10--10-10-|
|-3---3--3--3---3--3--3---3--3--|-10--10-10-10--10-10-10--10-10-|

|--------------------------|--------------------------|
|--------------------------|--------------------------|
|10101010--10101010--1010--|-12121212--12121212--1212-|
|-8-8-8-8---8-8-8-8---8-8--|-10101010--10101010--1010-|
|-8-8-8-8---8-8-8-8---8-8--|-10101010--10101010--1010-|
|-8-8-8-8---8-8-8-8---8-8--|-10101010--10101010--1010-|


BRIDGE

Rhythm
|------------------------|------------------------|------------------------|
|------------------------|------------------------|------------------------|
|------------------------|------------------------|------------------------|
|------------------------|------------------------|------------------------|
|-0-0--0-000-000-0-0-5/7-|-0-0--0-000-000-0-0-5/7-|-0-0--0-000-000-0-0-5/7-|
|-0-0--0-000-000-0-0-5/7-|-0-0--0-000-000-0-0-5/7-|-0-0--0-000-000-0-0-5/7-|
PM__________________|    PM__________________|    PM__________________|

|----------------------|---------------------|------------------------|
|----------------------|---------------------|------------------------|
|----------------------|-5-5-5-5-5-7-7-7-7-7-|------------------------|
|----------------------|-3-3-3-3-3-5-5-5-5-5-|------------------------|
|-00-0-0-8-7-0-5-7-3-2-|-3-3-3-3-3-5-5-5-5-5-|-0-0--0-000-000-0-0-5/7-|
|-00-0-0-8-7-0-5-7-3-2-|-3-3-3-3-3-5-5-5-5-5-|-0-0--0-000-000-0-0-5/7-|
PM______|                                    PM__________________|

|------------------------|-------------------------|
|------------------------|-------------------------|
|------------------------|-5-5-5-5-5-7-7-----------|
|------------------------|-3-3-3-3-3-5-5-8-8-7-----|
|-0-0--0-000-000-0-0-5/7-|-3-3-3-3-3-5-5-8-8-7-3\2-|
|-0-0--0-000-000-0-0-5/7-|-3-3-3-3-3-5-5-8-8-7-3\2-|


Lead
|---------------|--------------------|--------------|--------------------|
|--15-17--------|--------------------|-15-17--------|----------13~-------|
|--------17-----|-----12-14-12-11----|-------17-----|----12-14-----------|
|---------------|--15-------------12-|--------------|-15-----------------|
|---------------|--------------------|--------------|--------------------|
|---------------|--------------------|--------------|--------------------|

|---------------------|---------------|--------------------|------------|-----------|
|---------------------|--15-17--------|--------------------|--15-17-18~-|-15-17-----|
|--12~~~~~~14~~~~~~---|--------17-----|----12-14-12-11-----|------------|-------17--|
|---------------------|---------------|-15-------------12--|------------|-----------|
|---------------------|---------------|--------------------|------------|-----------|
|---------------------|---------------|--------------------|------------|-----------|



CHORUS 3

Lead
|-------------------------------------------------|
|-------------------------------------------------|
|-14-14-14-12-12-12-14-14-14-12-12-12-14-14-12-12-|
|-------------------------------------------------|
|-------------------------------------------------|
|-------------------------------------------------|

|-------------------------------------------------|
|-------------------------------------------------|
|-14-14-14-12-12-12-15-15-15-15-15-15-15-15-15-15-|
|-------------------------------------------------|
|-------------------------------------------------|
|-------------------------------------------------|

|-------------------------------------------------|
|-------------------------------------------------|
|-17-17-17-17-17-17-17-17-17-17-17-17-17-17-17-17-|
|-------------------------------------------------|
|-------------------------------------------------|
|-------------------------------------------------|

|-------------------------------------------------|
|-------------------------------------------------|
|-15-15-15-15-15-15-15-15-15-15-15-15-15-15-15-15-|
|-------------------------------------------------|
|-------------------------------------------------|
|-------------------------------------------------|

|-------------------------------------------------|
|-------------------------------------------------|
|-14-14-14-12-12-12-14-14-14-12-12-12-14-14-12-12-|
|-------------------------------------------------|
|-------------------------------------------------|
|-------------------------------------------------|

|-------------------------------------------------|
|-------------------------------------------------|
|-14-14-14-12-12-12-15-15-15-15-15-15-15-15-15-15-|
|-------------------------------------------------|
|-------------------------------------------------|
|-------------------------------------------------|

|-------------------------------------------------|
|-------------------------------------------------|
|-17-17-17-17-17-17-17-17-17-17-17-17-17-17-17-17-|
|-------------------------------------------------|
|-------------------------------------------------|
|-------------------------------------------------|

|-------------------------------------------------|
|-------------------------------------------------|
|-15-15-15-15-15-15-15-15-15-15-15-15-15-15-15-15-|
|-------------------------------------------------|
|-------------------------------------------------|
|-------------------------------------------------|

Rhythm
|-------------------------------|-------------------------------|
|-------------------------------|-------------------------------|
|-2---2--2--2---2--2--2---2--2--|10--10-10-10--10-10-10--10-10--|
|-0---0--0--0---0--0--0---0--0--|-8---8--8--8---8--8--8---8--8--|
|-0---0--0--0---0--0--0---0--0--|-8---8--8--8---8--8--8---8--8--|
|-0---0--0--0---0--0--0---0--0--|-8---8--8--8---8--8--8---8--8--|

|-------------------------------|-------------------------------|
|-------------------------------|-------------------------------|
|-5---5--5--5---5--5--5---5--5--|-12--12-12-12--12-12-12--12-12-|
|-3---3--3--3---3--3--3---3--3--|-10--10-10-10--10-10-10--10-10-|
|-3---3--3--3---3--3--3---3--3--|-10--10-10-10--10-10-10--10-10-|
|-3---3--3--3---3--3--3---3--3--|-10--10-10-10--10-10-10--10-10-|

|-------------------------------|-------------------------------|
|-------------------------------|-------------------------------|
|-2---2--2--2---2--2--2---2--2--|10--10-10-10--10-10-10--10-10--|
|-0---0--0--0---0--0--0---0--0--|-8---8--8--8---8--8--8---8--8--|
|-0---0--0--0---0--0--0---0--0--|-8---8--8--8---8--8--8---8--8--|
|-0---0--0--0---0--0--0---0--0--|-8---8--8--8---8--8--8---8--8--|

|-------------------------------|-------------------------------|
|-------------------------------|-------------------------------|
|-5---5--5--5---5--5--5---5--5--|-12--12-12-12--12-12-12--12-12-|
|-3---3--3--3---3--3--3---3--3--|-10--10-10-10--10-10-10--10-10-|
|-3---3--3--3---3--3--3---3--3--|-10--10-10-10--10-10-10--10-10-|
|-3---3--3--3---3--3--3---3--3--|-10--10-10-10--10-10-10--10-10-|


ENDING

Lead
|-------------------------------|------------------------------|
|-------------------------------|------------------------------|
|----14----14----17----15----14-|-----14----14-----9~~~~~~~----|
|-12----12----12----12----12----|--12----12----12--------------|
|-------------------------------|------------------------------|
|-------------------------------|------------------------------|
Rhythm  w/ wah
|-------------------------------|-------------------------------|
|-------------------------------|-------------------------------|
|-------------------------------|-------------------------------|
|----------------5--------------|----------------5--------------|
|0-0-5p0-0-7p5-0-3-0-0-8p0-0-3\2|0-0-5p0-0-7p5-0-3-0-0-8p0-0-3\2|
|0-0-5p0-0-7p5-0---0-0-8p0-0-3\2|0-0-5p0-0-7p5-0---0-0-8p0-0-3\2|

Lead
|-------------------------------|------------------------------|
|-------------------------------|------------------------------|
|----14----14----17----15----14-|-----14----14-----9~~~~~~~----|
|-12----12----12----12----12----|--12----12----12--------------|
|-------------------------------|------------------------------|
|-------------------------------|------------------------------|
Rhythm  w/ wah
|-------------------------------|----------------------------------|
|-------------------------------|----------------------------------|
|-------------------------------|-----------------5----5----5------|
|----------------5--------------|-----------------3----3----3----0-|
|0-0-5p0-0-7p5-0-3-0-0-8p0-0-3\2|0-0-5p0-0-7p5-0--1----1----1----0-|
|0-0-5p0-0-7p5-0---0-0-8p0-0-3\2|0-0-5p0-0-7p5-0-----------------0-|

3. Breath

Intro
Guitar 2 Clean
C |-0---------------------------------------------------------------------|
G |-0---------------------------------------------------------------------|
D#|-2-------5-------------------------------------------------------------|
A#|-2-------5-------------------------------------------------------------|
F |-0-------3-------------------------------------------------------------|
A#|-----------------------------------------------------------------------|

Distortion
Guitar 1
C |-15-12-10-12-13-12-8---19-15-20-19-15---8-8h10-12-10-3-7-5-------------|
G |-----------------------------------------------------------------------|
D#|--------x2------------------x2-----------------------------------------|
A#|-----------------------------------------------------------------------|
F |-----------------------------------------------------------------------|
A#|-----------------------------------------------------------------------|

Distortion
Guitar 2
C |-----------------------------------------------------------------------|
G |-----------------------------x2----------------------------------------|
D#|-5-------2------------------------------5---------7----4-2-------------|
A#|-5-------2--------------1010-1010--7----5---------7----4-2-------------|
F |-3-------0--------------1010-1010--7----3---------5----2-0-------------|
A#|------------------------1010-1010--7-----------------------------------|

Verse
Guitar-1
C |------3-7-3-5------3-7-3-5-------3-8-3-3-5-------5-8-7-5-7-------------|
G |-----------------------------------------------------------------------|
D#|---2------------2-------------5---------------2------------------------|
A#|--2------------2-------------5---------------2---------------x2--------|
F |-0------------0-------------3---------------0--------------------------|
A#|-----------------------------------------------------------------------|

Pre-Chorus
Guitar 2
C |-----------------------------------------------------------------------|
G |---(5)-----------------------------------------------------------------|
D#|---(5)-------------2----------2222-------------------------------------|
A#|--xx3--------x2----2----------2222—-333xxx333--------------------------|
F |--xx3--------------0----------0000—-333xxx333--------------------------|
A#|--xx3--------------0----------0000—-333xxx333--------------------------|

Guitar 1
C |-----------------------------------------------------------------------|
G |-----------------------------------------------------------------------|
D#|-----------------------------------------------------------------------|
A#|-------------x2--------------------------------------------------------|
F |-------5555------------5555--------------------------------------------|
A#|-------0000------------0000--------------------------------------------|


Chorus
Guitar 1
C |clean----distortion----------------------------------------------------|
G |-(0)-----------------5------7------------------------------------------|
D#|--5----------2-------5------7------------------------------------------|
A#|--5----------2-------3------5------------------------------------------|
F |--3----------0-------3------5------------------------------------------|
A#|-------------0-------3------5------------------------------------------|


Verse
Guitar-1
C |------3-7-3-5------3-7-3-5-------3-8-3-3-5-------5-8-7-5-7-------------|
G |-----------------------------------------------------------------------|
D#|---2------------2-------------5---------------2------------------------|
A#|--2------------2-------------5---------------2-------------------------|
F |-0------------0-------------3---------------0--------------------------|
A#|-----------------------------------------------------------------------|


Pre-Chorus
Guitar 2
C |-----------------------------------------------------------------------|
G |---(5)-----------------------------------------------------------------|
D#|---(5)-------------2----------2222-------------------------------------|
A#|--xx3--------x2----2----------2222—-333xxx333--------------------------|
F |--xx3--------------0----------0000—-333xxx333--------------------------|
A#|--xx3--------------0----------0000—-333xxx333--------------------------|



Guitar 1
C |-----------------------------------------------------------------------|
G |-----------------------------------------------------------------------|
D#|-----------------------------------------------------------------------|
A#|-------------x2--------------------------------------------------------|
F |-------5555------------5555--------------------------------------------|
A#|-------0000------------0000--------------------------------------------|


Chorus a little different all distortion
Guitar 1
C |-----------------------------------------------------------------------|
G |-(0)---------------5------7--------------------------------------------|
D#|--5--------2-------5------7--------------------------------------------|
A#|--5--------2-------3------5--------------------------------------------|
F |--3--------0-------3------5--------------------------------------------|
A#|-----------0-------3------5--------------------------------------------|


Bridge
Guitar 1
C |12-12-12-12-12-12-12-12-12-12-12-12-12-12-12-13-13-13-13-13-13-13-13-13|
G |------------.--.-----.--.-----.--.-----.-----------------.--.-----.--.-|
D#|-----------------------------------------------------------------------|
A#|-----------------------------------------------------------------------|
F |-----------------------------------------------------------------------|
A#|-----------------------------------------------------------------------|


C |12-12-12-12-12-12-10-10-10-10-10-10-12-13-12-12------------------------|
G |---.--.-----.-----------------.--.-------------------------------------|
D#|-----------------------------------------------------------------------|
A#|-----------------------------------------------------------------------|
F |-----------------------------------------------------------------------|
A#|-----------------------------------------------------------------------|

Guitar 2
this part is hard to tab the strumming so just listen to the song and you can hear some 
mutes during some of the notes
C |-----------------------------------------------------------------------|
G |--------5-----7------5-------------------------------------------------|
D#|--2-----5-----7------5-------------------------------------------------|
A#|--2-----3-----5------3-------------------------------------------------|
F |--0-----3-----5------3-------------------------------------------------|
A#|--0-----3-----5------3-------------------------------------------------|




Both guitars
Where Ben starts singing during the bridge
C |-----------------------------------------------------------------------|
G |--------5555--7777-----------------------------------------------------|
D#|--2222--5555--7777-----------------------------------------------------|
A#|--2222--3333--5555---3xxx----------------------------------------------|
F |--0000--3333--5555---3xxx----------------------------------------------|
A#|--0000--3333--5555---3xxx----------------------------------------------|


Chorus
Guitar 1
C |-----------------------------------------------------------------------|
G |-------------------5------7--------------------------------------------|
D#|--5--------2-------5------7--------------------------------------------|
A#|--5--------2-------3------5--------------------------------------------|
F |--3--------0-------3------5--------------------------------------------|
A#|-----------0-------3------5--------------------------------------------|


Guitar 1
End with this
C |---5-8h7-5-8-----------------------------------------------------------|
G |-----------------------------------------------------------------------|
D#|-----------------------------------------------------------------------|
A#|-----------------------------------------------------------------------|
F |-----------------------------------------------------------------------|
A#|-----------------------------------------------------------------------|


4. You

INTRO
Guitar 1 - Clean     4x
|--------------------------------------------------|
|--------------------------------------------------|
|--11--11-----11--11-----11--11-----11--11---------|
|-9---9---9--9---9---9--9---9---9--9---9---9-------|
|7---7---7--7---7---7------------------------------|
|----------------------8---8---8--8---8---8--------|

Guitar 1 - Clean     1x
|----------------------------------------------|
|----------------------------------------------|
|--11--11-----11--11-----11--11----------------|
|-9---9---9--9---9---9--9---9---9--------------|
|7---7---7--7---7---7--------------------------|
|----------------------8---8---8--8-8-8-8-8-8-8|

CHORUS
Both Guitars
|----------------------------------------|
|----------------------------------------|
|------------------5-555-55--------------|
|3-333-33-33-3333--5-555-55--5-5-x5------|
|3-333-33-33-3333--3-333-33--5-5-x5------|
|1-111-11-11-1111--3-333-33--3-3-x3------|

|----------------------------------------|
|----------------------------------------|
|------------------5-555-55--------------|
|3-333-33-33-3333--5-555-55--55-555------|
|3-333-33-33-3333--3-333-33--55-555------|
|1-111-11-11-1111--3-333-33--33-333------|

|---------------------------------------3-|
|---------------------------------------2-|
|------------------5-555-55-------------3-|
|3-333-33-33-3333--5-555-55--55-555--3--0-|
|3-333-33-33-3333--3-333-33--55-555--3--0-|
|1-111-11-11-1111--3-333-33--33-333--1----|

POST CHORUS
Guitar 1 - Phaser and Reverb
 |12121212------12121212----------------12121212-1414141414-10101010|
 |-------12121212------12121212-13131313----------------------------|
 |------------------------------------------------------------------|
 |------------------------------------------------------------------|
 |------------------------------------------------------------------|
 |------------------------------------------------------------------|

 |12121212------12121212----------------12121212-1414141414-10101010|
 |-------12121212------13131313-12121212----------------------------|
 |------------------------------------------------------------------|
 |------------------------------------------------------------------|
 |------------------------------------------------------------------|
 |------------------------------------------------------------------|

Guitar 2 - 3x
 |------------------------------------------------|
 |------------------------------------------------|
 |9999999999999999-5555555555555555---------------|
 |9999999999999999-5555555555555555---------------|
 |7777777777777777-3333333333333333---------------|
 |7777777777777777-3333333333333333---------------|

VERSE
Guitar 1 - reverb; use slight palm mutes throughout
  .        .         .        .
 |----------------------------------------|
 |----------------------------------------|
 |---11-11-----11-11----11-11----11-11----|
 |--9--9------9--9-----9--9-----9--9------|
 |7--------7------------------------------|
 |-------------------8--------8-----------|

  .        .         .        .
 |------------------------------------------|
 |------------------------------------------|
 |---11-11-----11-11----11-11----11-11-12-11|
 |--9--9------9--9-----9--9-----9-----------|
 |7--------7--------------------------------|
 |-------------------8--------8-------------|

  .        .         .        .





 |----------------------------------------|
 |----------------------------------------|
 |---11-11-----11-11----11-11----11-11----|
 |--9--9------9--9-----9--9-----9--9------|
 |7--------7------------------------------|
 |-------------------8--------8-----------|

  .        .         .
 |----------------------------------------|
 |----------------------------------------|
 |---11-11-----11-11----11-11-------------|
 |--9--9------9--9-----9--9-----9999999---|
 |7--------7--------------------xxxxxxx---|
 |-------------------8--------8-8888888---|

CHORUS - 1x

BRIDGE
Guitar 2 - wah in the closed position (Guitar 2 is tabbed 5 bars down)
 |---------------------------------------------------------------|
 |---------------------------------------------------------------|
 |---------------------------------------------------------------|
 |---------------------------------------------------------------|
 |77777777777777773333333333333333777777777777777333333333333333-|
 |---------------------------------------------------------------|

Guitar 1 - starts right here --------------------^

Guitar 1 - phaser and reverb
 |19-------------------12121212--------12121212----------------12121212-|
 |---19191919-15-(8x)----------12121212--------12121212-13131313--------|
 |----------------------------------------------------------------------|
 |----------------------------------------------------------------------|
 |----------------------------------------------------------------------|
 |----------------------------------------------------------------------|

 |1414141410101010-12121212--------12121212----------------1212121214141414|
 |-------------------------12121212--------1313131312121212----------------|
 |-------------------------------------------------------------------------|
 |-------------------------------------------------------------------------|
 |-------------------------------------------------------------------------|
 |-------------------------------------------------------------------------|

 |10101010-12121212--------12121212-----------------12121212-14141414--|
 |-----------------12121212--------12121212-13131313-------------------|
 |---------------------------------------------------------------------|
 |---------------------------------------------------------------------|
 |---------------------------------------------------------------------|
 |---------------------------------------------------------------------|

 |10101010-12121212--------12121212--12-14-15-----|
 |-----------------12121212--------12-------------|
 |------------------------------------------------|
 |------------------------------------------------|
 |------------------------------------------------|
 |------------------------------------------------|

  Guitar 2 - 3x
 |------------------------------------|
 |------------------------------------|
 |9999999999999999-5555555555555555---|
 |9999999999999999-5555555555555555---|
 |7777777777777777-3333333333333333---|
 |7777777777777777-3333333333333333---|



Guitar 2 - 1x
 |----------------------|
 |----------------------|
 |9999999999999-9-5-----|
 |9999999999999-9-5-----|
 |7777777777777-7-3-----|
 |7777777777777-7-3-----|



5. Evil Angel

INTRO - 2x
Both Guitars
C |----------------------------------5*-|
G |----------------------------7*-------|
Eb|-------------------------------5*----|
Bb|0h2-2-x-5p2-0h2-3p2-0h2-2-x----------|
F |0h2-2-x-5p2-0h2-3p2-0h2-2-x----------|
Bb|0h2-2-x-5p2-0h2-3p2-0h2-2-x----------|

C |---------------------------------12*-|
G |----------------------------7*-------|
Eb|-------------------------------7*----|
Bb|0h2-2-x-5p2-0h2-3p2-0h2-2-x----------|
F |0h2-2-x-5p2-0h2-3p2-0h2-2-x----------|
Bb|0h2-2-x-5p2-0h2-3p2-0h2-2-x----------|

VERSE


C |(0)-(0)-(0)-(0)--(0)------|
G |-3---1---1---3----3-------|
Eb|-0---0---0---2----2-------|
Bb-|x---0---2---0----0-------|   1st Half   2x
F |-3---3---3---0----0-------|
Bb|--------------------------|

C |-----------0--------------0---------------0----|
G |---3---------3------3-------3------3--------2--|
Eb|--0--0---0--------0--0---0-------2---2---2-----|
Bb|-------------------------------0-------0-------|  2nd Half  2x
F |3------3--------3------3-----------------------|
Bb|-----------------------------------------------|








CHORUS - 2x
Guitar 1
C |-----------------------------------------------------------|
G |13-(6x)-12-(6x)-13-(6x)-12-(6x)-15-(12x)-------12----------|
Eb|12------12------12------12------12-------12-14----14-12-11-|
Bb|-----------------------------------------------------------|
F |-----------------------------------------------------------|
Bb|-----------------------------------------------------------|
Guitar 2
C |---------------------------------------------------|
G |---------------------------------------------------|
Eb|---------------------------------------------------|
Bb|2--2-2-2-2-2-0--0-0-0-0-0-10-101010101010---5--0---|
F |2--2-2-2-2-2-0--0-0-0-0-0-10-101010101010---5--0---|
Bb|2--2-2-2-2-2-0--0-0-0-0-0-10-101010101010---5--0---|

INTRO - 1x
VERSE - 1x

CHORUS
Part 1 - 2x
Guitar 1 - numbers of strums is an estimate here...
C |-----------------------------------------------------------|
G |13-(6x)-12-(6x)-13-(6x)-12-(6x)-15-(12x)-------12----------|
Eb|12------12------12------12------12-------12-14----14-12-11-|
Bb|-----------------------------------------------------------|
F |-----------------------------------------------------------|
Bb|-----------------------------------------------------------|

Guitar 2
C |-------------------------------------------------|
G |-------------------------------------------------|
Eb|-------------------------------------------------|
Bb|2--2-2-2-2-2-0-0-0-0-0-0-10101010101010---5--0---|
F |2--2-2-2-2-2-0-0-0-0-0-0-10101010101010---5--0---|
Bb|2--2-2-2-2-2-0-0-0-0-0-0-10101010101010---5--0---|

Chorus Part 2 (2:10) - 2x
Guitar 1
C |-----------------------------------------------------------|
G |13-(6x)-12-(6x)-13-(6x)-12-(6x)-15-(12x)-------12----------|
Eb|12------12------12------12------12-------12-14----14-12-11-|
Bb|-----------------------------------------------------------|
F |-----------------------------------------------------------|
Bb|-----------------------------------------------------------|

Guitar 2
C |------------------------------------------------------|
G |------------------------------------------------------|
Eb|------------------------------------------------------|
Bb|5--5-5-5-5-5-9--9-9-9-9-9-10--10-10-10-10-10---5----0-|
F |5--5-5-5-5-5-9--9-9-9-9-9-10--10-10-10-10-10---5----0-|
Bb|5--5-5-5-5-5-9--9-9-9-9-9-10--10-10-10-10-10---5----0-|


BRIDGE - Part 1
Both Guitars - 1x
C |------------------------------------------------|
G |------------------------------------------------|
Eb|------------------------------------------------|
Bb|-22--22--22--------------00--00--33-------------|
F |x22-x22-x22-------------x00-x00-x33-------------|
Bb|x22-x22-x22-0h2-5p2-0h2-x00-x00-x33-0h2-5p2-0h2-|

BRIDGE - Part 2  (2:43)
Guitar 2 keeps playing the part right above - ^^
Guitar 1  2x         v - Start gradual bend here
C |------------------------------------------|
G |------------------------------------------|
Eb|15-15-15-15-15-15-15b-15b-15b-15b-15b-15b-|
Bb|------------------------------------------|
F |------------------------------------------|
Bb|------------------------------------------|

Guitar 1 Cont..                          Gradual bend - v
C |------------------------------------------------------------|
G |---------10-------12---12-13-12-10-12-10--------------------|
Eb|12-11-12----12-14---14------------------12-11-12-11-9-9b9b9b|
Bb|------------------------------------------------------------|
F |------------------------------------------------------------|
Bb|------------------------------------------------------------|

Bridge - Part 3
Guitar 1 - Clean; let ring w/phaser
C |----------0--------------0----|
G |----3---3---------3----3------|
Eb|--0--0----------0--0----------|
Bb|------------------------------|
F |3-----3-------3------3--------|
Bb|------------------------------|


Bridge Part 4 - 2x
Guitar 1 - Dont know if this is 100% right but, it is close.
           Play with a wah pedal here would be my guess.
C |------------------------------------------------------|
G |-------------------15----------------12---------------|
Eb|79-(6x)-912-(12x)--12--(12x)----12-14--14-12-11-------|
Bb|------------------------------------------------------|
F |------------------------------------------------------|
Bb|------------------------------------------------------|

Guitar 2 - Staccato notes
C |----------------------------------------------------|
G |----------------------------------------------------|
Eb|----------------------------------------------------|
Bb|2--2-2-2-2-2-0-0-0-0-0-0-10-101010101010---5--0-----|
F |2--2-2-2-2-2-0-0-0-0-0-0-10-101010101010---5--0-----|
Bb|2--2-2-2-2-2-0-0-0-0-0-0-10-101010101010---5--0-----|

CHORUS - 2x
Guitar 1
C |-----------------------------------------------------------|
G |13-(6x)-12-(6x)-13-(6x)-12-(6x)-15-(12x)-------12----------|
Eb|12------12------12------12------12-------12-14----14-12-11-|
Bb|-----------------------------------------------------------|
F |-----------------------------------------------------------|
Bb|-----------------------------------------------------------|

Guitar 2
C |------------------------------------------------------|
G |------------------------------------------------------|
Eb|------------------------------------------------------|
Bb|5--5-5-5-5-5-9--9-9-9-9-9-10--10-10-10-10-10---5----0-|
F |5--5-5-5-5-5-9--9-9-9-9-9-10--10-10-10-10-10---5----0-|
Bb|5--5-5-5-5-5-9--9-9-9-9-9-10--10-10-10-10-10---5----0-|

Final Part/Outro
Both Guitars
C |----------------------------------|
G |----------------------------------|
Eb|----------------------------------|
Bb|-22--22--22--22--22--22--22--2----|
F |x22-x22-x22-x22-x22-x22-x22-x2----|
Bb|x22-x22-x22-x22-x22-x22-x22-x2----|


6. Until The End

INTRO: DISTORTION
Guitar 1
|------------------------------------------------------------------|
|------------------------------------------------------------------|
|--101010101010-999999-777777--------------------------------------|
|----------------------------777777-888888-1010881010-777777777777-|
|------------------------------------------------------------------|
|------------------------------------------------------------------|

Guitar 2 SILENT

Guitar 1
|------------------------------------------------------------------|
|------------------------------------------------------------------|
|--101010101010-999999-777777-------------------------777777777777-|
|----------------------------777777-888888-1010881010--------------|
|------------------------------------------------------------------|
|------------------------------------------------------------------|

Guitar 2
|------------------------------------------------------------------|
|------------------------------------------------------------------|
|------------------------------------------------------------------|
|------------------------------------------------------------0-1---|
|--0------------0-0-----0----70000------------0-0-----0------0-1---|
|--0------------0-0-----0----70000------------0-0-----0------0-1---|
PM                           ....                            .

Guitar 1
|----------------------------------------------------------|
|----------------------------------------------------------|
|--10-10-10-10-10-10-9-9-9-9-9-9-7-7-7-7-7-7---------------|
|---------------------------------------------7-7-7-7-7-7--|
|----------------------------------------------------------|
|----------------------------------------------------------|

Guitar 2
|----------------------------------------------------------|
|----------------------------------------------------------|
|----------------------------------------------------------|
|--0---------0--3--0-0---0-320-0-0-----0-3-0--0----320320--|
|--0---------0--3--0-0---0-320-0-0-----0-3-0--0----320320--|
|--0---------0--3--0-0---0-320-0-0-----0-3-0--0----320320--|
PM              .          ...           .         ......

Guitar 1
|----------------------------------------------------------|
|----------------------------------------------------------|
|----------------------------------------------------------|
|--8-8-8-8-8-8--10-10-8-8-10-10--7-7-7-7-7-7--7-7-7-7-7-7--|
|----------------------------------------------------------|
|----------------------------------------------------------|

Guitar 2
|----------------------------------------------------------|
|----------------------------------------------------------|
|----------------------------------------------------------|
|--0-----0-3-0--0------0-3-0-0------0-3-0--0---------------|
|--0-----0-3-0--0------0-3-0-0------0-3-0--0---3h555-3h666-|
|--0-----0-3-0--0------0-3-0-0------0-3-0--0---------------|
PM         .             .            .

Guitar 1
|----------------------------------------------------------|
|----------------------------------------------------------|
|--10-10-10-10-10-10-9-9-9-9-9-9-7-7-7-7-7-7---------------|
|---------------------------------------------7-7-7-7-7-7--|
|----------------------------------------------------------|
|----------------------------------------------------------|


Guitar 2
|----------------------------------------------------------|
|----------------------------------------------------------|
|----------------------------------------------------------|
|--0---------0--3--0-0---0-320-0-0-----0-3-0--0----320320--|
|--0---------0--3--0-0---0-320-0-0-----0-3-0--0----320320--|
|--0---------0--3--0-0---0-320-0-0-----0-3-0--0----320320--|
PM              .          ...           .         ......






Guitar 1
|-------------------------------------------------------------|
|-------------------------------------------------------------|
|---------------------------------------------7-7-7-7h101010--|
|--8-8-8-8-8-8--10-10-8-8-10-10--7-7-7-7-7-7------------------|
|-------------------------------------------------------------|
|-------------------------------------------------------------|


Guitar 2
|-------------------------------------------------------------|
|-------------------------------------------------------------|
|-------------------------------------------------------------|
|--0-----0-3-0--0--------0-3-0---0------0-3-0--0--------------|
|--0-----0-3-0--0--------0-3-0---0------0-3-0--0-5--5h8-8-8---|
|--0-----0-3-0--0--------0-3-0---0------0-3-0--0--00----------|
PM         .               .              .       ..

VERSE: CLEAN W/ REVERB
Guitar 1&2
|----------------------------------------------------------------|\-- /
|--6-8/10--5~---13~--10~--8~--6~--6-8/10--5~---13~--10~--8~--6~------ / \
|----------------9~-----------------------------9~---------------|  \ /X2
|----------------------------------------------------------------| -- /X2
|----------------------------------------------------------------|--- /
|-------------------------------------------------------------------- /

Play this after
|-------------------|
|-------------------|
|-------------------|
|--777101010108888--|
|--777101010108888--|
|--777101010108888--|
PM ...

CHORUS: 
|-----------------------------------------------|\-- /
|--------------------------------------------------- / \
|---5~------5-9---2~-----2-9---10~----12---10---|  \ /x2
|---3~------3-7---0~-----0-7---8~-----10---8----| -- /x2
|---3~------3-7---0~-----0-7---8~-----10---8----|--- /
|---3~------3-7---0~-----0-7---8~-----10---8-------- /

POST CHORUS:
Guitar 1
|----------------------------------------------------------|
|----------------------------------------------------------|
|--10-10-10-10-10-10-9-9-9-9-9-9-7-7-7-7-7-7---------------|
|---------------------------------------------7-7-7-7-7-7--|
|----------------------------------------------------------|
|----------------------------------------------------------|


Guitar 2
|----------------------------------------------------------|
|----------------------------------------------------------|
|----------------------------------------------------------|
|--0---------0--3--0-0---0-320-0-0-----0-3-0--0----320320--|
|--0---------0--3--0-0---0-320-0-0-----0-3-0--0----320320--|
|--0---------0--3--0-0---0-320-0-0-----0-3-0--0----320320--|
PM              .          ...           .         ......

Guitar 1
|-------------------------------------------------------------|
|-------------------------------------------------------------|
|---------------------------------------------7-7-7-7h101010--|
|--8-8-8-8-8-8--10-10-8-8-10-10--7-7-7-7-7-7------------------|
|-------------------------------------------------------------|
|-------------------------------------------------------------|


Guitar 2
|-------------------------------------------------------------|
|-------------------------------------------------------------|
|-------------------------------------------------------------|
|--0-----0-3-0--0--------0-3-0---0------0-3-0--0--------------|
|--0-----0-3-0--0--------0-3-0---0------0-3-0--0-5--5h8-8-8---|
|--0-----0-3-0--0--------0-3-0---0------0-3-0--0--00----------|
PM         .               .              .       ..

[REPEAT VERSE]

[REPEAT CHORUS]x3

2nd POST CHORUS:
|-----------------------------------|
|-----------------------------------|
|--7~-----9~-----10~-----12~---10~--|
|--5~-----7~-----8~------10~---8~---|
|--5~-----7~-----8~------10~---8~---|
|--5~-----7~-----8~------10~---8~---|

BRIDGE:
|---------------------------------------|\ /
|----------------------------------------- / \
|---------------------------------------|\ / \
|--0--0--12----10-12-10---7----5-7-5-3---- / \ \
|--0--0--12----10-12-10---7----5-7-5-3---- /  \ \
|--0--0--12----10-12-10---7----5-7-5-3---- /   \ \
                                            REPEAT X2
|---------------------------------------|   /-- /
|---------------------------------------|  /--- /
|---------------------------------------| /---- /
|--0--0--12----10-12-10---7----5---3----|/----- /
|--0--0--12----10-12-10---7----5---3----|------ /
|--0--0--12----10-12-10---7----5---3----------- /

7. Dance With The Devil

Intro  Gtr I
C |-----------------------------------------------------------------------|
G |-----------------------------------------------------------------------|  
Eb|-----------------------------------------------------------------------| 
Bb|-3S5-5-5-5-5-5-5-5-5-5-5-5-5-5-5-------3S5-5-5-5-5-5-5-5-5-5-5-5-5-5-5-| 
F |-----------------------------------------------------------------------|
Bb|-----------------------------------------------------------------------|

Verse  Gtr I
C |------------------------------------------------------------------------|
G |-------------------------------------------------11---------------------|
Eb|-------7------------5------------7------12-12-12----12-12--8-8-8-10-8---|
Bb|-5-5-5---5-5--7-7-7---7-7--8-8-8---8-8--------------------------------8-| 
F |------------------------------------------------------------------------|
Bb|------------------------------------------------------------------------|

C |-------------------------------------|x1
G |-------------------------------------|
Eb|-8-8-8-10-8---8-8-8-10-8---7b8-7b8-7-|
Bb|------------8------------8-----------| 
F |-------------------------------------|
Bb|-------------------------------------|

Breakdown Gtr I, II
C |--------------------------|x3 |----------------------------|x1
G |--------------------------|   |--------------------------8-|
Eb|--------------------------|   |--------------------------7-|
Bb|-5--5--5p3--5p3--8p5--3h6-|   |-5--5--5p3--8-8-8--6-6-6--5-|
F |-5--5--5p3--5p3--8p5--3h6-|   |-5--5--5p3--8-8-8--6-6-6--5-|
Bb|-5--5--5p3--5p3--8p5--3h6-|   |-5--5--5p3--8-8-8--6-6-6--5-|

Verse  Gtr I
C |------------------------------------------------------------------------|
G |-------------------------------------------------11---------------------|
Eb|-------7------------5------------7------12-12-12----12-12--8-8-8-10-8---|
Bb|-5-5-5---5-5--7-7-7---7-7--8-8-8---8-8--------------------------------8-| 
F |------------------------------------------------------------------------|
Bb|------------------------------------------------------------------------|

C |-------------------------------------|x3
G |-------------------------------------|
Eb|-8-8-8-10-8---8-8-8-10-8---7b8-7b8-7-|
Bb|------------8------------8-----------| 
F |-------------------------------------|
Bb|-------------------------------------|

Chorus Gtr I
C |-----------------------------------------------------------|x3
G |-----------------------------------------------------------|
Eb|-----------------------------------------------------------|
Bb|--5--5--5-5-5----3--3--3-3-3----1--1--1-1-1----1--1--1-1-1-| 
F |--5--5--5-5-5----3--3--3-3-3----1--1--1-1-1----1--1--1-1-1-|
Bb|--5--5--5-5-5----3--3--3-3-3----1--1--1-1-1----1--1--1-1-1-|

  Gtr II
C |-----------------------------------------------------------|x3
G |-----------------------------------------------------------|
Eb|--7--7--7-7-7----5--5--5-5-5----8--8--8-8-8----8--8--8-8-8-|
Bb|--5--5--5-5-5----3--3--3-3-3----8--8--8-8-8----8--8--8-8-8-| 
F |--5--5--5-5-5----3--3--3-3-3----6--6--6-6-6----6--6--6-6-6-|
Bb|--5--5--5-5-5----3--3--3-3-3-------------------------------|

Breakdown Gtr I, II
C |------------------------------------------------------|x1
G |----------------------------------------------------8-|
Eb|----------------------------------------------------7-|
Bb|-5--5--5p3--5p3--8p5--3h6--5--5--5p3--8-8-8--6-6-6--5-|
F |-5--5--5p3--5p3--8p5--3h6--5--5--5p3--8-8-8--6-6-6--5-|
Bb|-5--5--5p3--5p3--8p5--3h6--5--5--5p3--8-8-8--6-6-6--5-|

Verse  Gtr I
C |------------------------------------------------------------------------|
G |-------------------------------------------------11---------------------|
Eb|-------7------------5------------7------12-12-12----12-12--8-8-8-10-8---|
Bb|-5-5-5---5-5--7-7-7---7-7--8-8-8---8-8--------------------------------8-| 
F |------------------------------------------------------------------------|
Bb|------------------------------------------------------------------------|

C |-------------------------------------|x3
G |-------------------------------------|
Eb|-8-8-8-10-8---8-8-8-10-8---7b8-7b8-7-|
Bb|------------8------------8-----------| 
F |-------------------------------------|
Bb|-------------------------------------|

Chorus Gtr I
C |-----------------------------------------------------------|x3
G |-----------------------------------------------------------|
Eb|-----------------------------------------------------------|
Bb|--5--5--5-5-5----3--3--3-3-3----1--1--1-1-1----1--1--1-1-1-| 
F |--5--5--5-5-5----3--3--3-3-3----1--1--1-1-1----1--1--1-1-1-|
Bb|--5--5--5-5-5----3--3--3-3-3----1--1--1-1-1----1--1--1-1-1-|

  Gtr II
C |-----------------------------------------------------------|x3
G |-----------------------------------------------------------|
Eb|--7--7--7-7-7----5--5--5-5-5----8--8--8-8-8----8--8--8-8-8-|
Bb|--5--5--5-5-5----3--3--3-3-3----8--8--8-8-8----8--8--8-8-8-| 
F |--5--5--5-5-5----3--3--3-3-3----6--6--6-6-6----6--6--6-6-6-|
Bb|--5--5--5-5-5----3--3--3-3-3-------------------------------|

Bridge Gtr I
C |---------------------------------------------------------------|x1
G |---------------------------------------------------------------|
Eb|-2h3p2p0---------------------2h3p2p0---------------------------|
Bb|----------0--0-0-0---1--1-1-----------0--0-0-0---1-1-1---3-3-3-| 
F |----------0--0-0-0---1--1-1-----------0--0-0-0---1-1-1---3-3-3-|
Bb|----------0--0-0-0---1--1-1-----------0--0-0-0---1-1-1---3-3-3-|

Solo Gtr I
C |----------------------------------------------------------|x1
G |----------------------------------------------------------|
Eb|----------------------------------------------------------|
Bb|-5----3----1----1----3----5----5----8----1----1----3----5-| 
F |-5----3----1----1----3----5----5----8----1----1----3----5-|
Bb|-5----3----1----1----3----5----5----8----1----1----3----5-|

  Gtr II
C |-------------------------------------------------------------|
G |-15-15-15-15-15-15-15-15-15-15-15-15-15-15-15-15-15-15-15-15-|
Eb|--x--x--x--x--x--x--x--x--x--x--x--x--x--x--x--x--x--x--x--x-|
Bb|-12-12-12-12-12-12-12-12-12-12-12-12-12-12-12-12-12-12-12-12-| 
F |-------------------------------------------------------------|
Bb|-------------------------------------------------------------|

C |-20v--18-17-15-17-15-13-15-15-15-15\--18--18-18--17--17-17-----------|
G |--------------------------------------15--15-15--15--15-15--15b16r15-|
Eb|-------------------------------------------------------------0-------|
Bb|---------------------------------------------------------------------| 
F |---------------------------------------------------------------------|
Bb|---------------------------------------------------------------------|

C |-------------------18-18-18-18-18-18-22-22-22-22-22-22-22-22-22-22-22-22-|x1
G |-15-15-15-15-15-15-------------------------------------------------------|
Eb|-------------------------------------------------------------------------|
Bb|-------------------------------------------------------------------------| 
F |-------------------------------------------------------------------------|
Bb|-------------------------------------------------------------------------|

Chorus Gtr I
C |-----------------------------------------------------------|x3
G |-----------------------------------------------------------|
Eb|-----------------------------------------------------------|
Bb|--5--5--5-5-5----3--3--3-3-3----1--1--1-1-1----1--1--1-1-1-| 
F |--5--5--5-5-5----3--3--3-3-3----1--1--1-1-1----1--1--1-1-1-|
Bb|--5--5--5-5-5----3--3--3-3-3----1--1--1-1-1----1--1--1-1-1-|

  Gtr II
C |-----------------------------------------------------------|x3
G |-----------------------------------------------------------|
Eb|--7--7--7-7-7----5--5--5-5-5----8--8--8-8-8----8--8--8-8-8-|
Bb|--5--5--5-5-5----3--3--3-3-3----8--8--8-8-8----8--8--8-8-8-| 
F |--5--5--5-5-5----3--3--3-3-3----6--6--6-6-6----6--6--6-6-6-|
Bb|--5--5--5-5-5----3--3--3-3-3-------------------------------|

Bridge Gtr I
C |-------------------------------------------------------------------|x1
G |-------------------------------------------------------------------|
Eb|-2h3p2p0---------------------2h3p2p0-------------------------------|
Bb|----------0--0-0-0---1--1-1-----------0--0-0-0---1-1-1---3-3-3---5-| 
F |----------0--0-0-0---1--1-1-----------0--0-0-0---1-1-1---3-3-3---5-|
Bb|----------0--0-0-0---1--1-1-----------0--0-0-0---1-1-1---3-3-3---5-|

8. Topless

INTRO
Guitar 1                    Guitar 2 enters --- V
                                                ..
|-------------------------------------------------|
|-------------------------------------------------|
|-------------------------------------------------|
|-------------------------------------------------|
|---------------------------------------------23--|
|0-2-0-2-0-2-0-2-0-2-3-3-3--0-2-0-2-0-2-0-2p0-23--|








Both Guitars            v--guitar 1 only
|---------------------0---------------------------|
|---------------------0---------------------------|
|-------------------------------------------------|
|0-2-0-2-0-2-0-2p0-2-33----0-2-0-2-0-2-0-2p0-2-3--|
|0-2-0-2-0-2-0-2p0-2-33----0-2-0-2-0-2-0-2p0-2-3--|
|0-2-0-2-0-2-0-2p0-2-33----0-2-0-2-0-2-0-2p0-2-3--|


            Gtr.1 only-v     . . . . . .
|---------------------0-----------------------5*-|
|---------------------0-------------------5*-----|
|---------------------------------------5*--5*---|
|0-2-0-2-0-2-0-2p0-2-33----0-2-0-2-0-2-----------|
|0-2-0-2-0-2-0-2p0-2-33----0-2-0-2-0-2-----------|
|0-2-0-2-0-2-0-2p0-2-33----0-2-0-2-0-2-----------|

VERSE
Part 1
Both Guitars
   .. . .   ..   .. . .   ..   .. . .   ..   ..
|------------0-------------0-------------0-----------------------|
|------------0-------------0-------------0-----------------------|
|------------x-------------x-------------x-----------------------|
|------------3-------------3-------------3-----------------------|
|02-0-2p0-22-3-02-0-2p0-22-3-02-0-2p0-22-3-02-0-2p0-22-0-2p0-2300|
|02-0-2p0-22-3-02-0-2p0-22-3-02-0-2p0-22-3-02-0-2p0-22-0-2p0-2300|

Part 2
Guitar 1
|---------------0----------------0----------------0--------------------|
|---------------0----------------0----------------0--------------------|
|---------------x----------------x----------------x-------------9999999|
|02-0-2p0-22----3-02-0-2p0-22----3-02-0-2p0-22----3-02-02-02-0--xxxxxxx|
|02-0-2p0-22-xxx3-02-0-2p0-22-xxx3-02-0-2p0-22-xxx3-02-02-02-0--7777777|
|02-0-2p0-22-xxx3-02-0-2p0-22-xxx3-02-0-2p0-22-xxx3-02-02-02-0---------|

Guitar 2
|---------------------------------------------------------------------|
|---------------------------------------------------------------------|
|---------------------------------------------------------------------|
|02-0-2p0-22----3-02-0-2p0-22----3-02-0-2p0-22----3-02-02-02-02-0-2333|
|02-0-2p0-22-xxx3-02-0-2p0-22-xxx3-02-0-2p0-22-xxx3-02-02-02-02-0-2333|
|02-0-2p0-22-xxx3-02-0-2p0-22-xxx3-02-0-2p0-22-xxx3-02-02-02-02-0-2333|

CHORUS
Part 1
Both Guitars
|--------------------------------------------|
|--------------------------------------------|
|-55555555/77777777/99999999/121212/11111111-|
|-xxxxxxxx/xxxxxxxx/xxxxxxxx/x-x-x-/x-x-x-x--|
|-33333333/55555555/77777777/101010/9-9-9-9--|
|--------------------------------------------|




Part 2
Both Guitars          v - Guitar 1 only
|-------------------0--------------------|
|-------------------0--------------------|
|----------------------------------------|
|02-02-02-0-2p0-2-3-3--02-02-02-0-2p0-23-|
|02-02-02-0-2p0-2-3-3--02-02-02-0-2p0-23-|
|02-02-02-0-2p0-2-3-3--02-02-02-0-2p0-23-|

Repeat Chorus Part 1
Repeat Chorus Part 2

Guitar 1 only---------v
Chorus Part 3         v  .. .. ..
|-------------------0------------------5*-|
|-------------------0--------------5*-----|
|--------------------------------5*--5*---|
|02-02-02-0-2p0-2-3-3--02-02-02-----------|
|02-02-02-0-2p0-2-3-3--02-02-02-----------|
|02-02-02-0-2p0-2-3-3--02-02-02-----------|

VERSE
CHORUS Part 1 and 2 - 2x

then..........

Guitar 1 only---------v
Chorus Part 3         v  .. .. ..
|-------------------0----------------------------|
|-------------------0----------------------------|
|------------------------------------------------|
|02-02-02-0-2p0-2-3-3--02-02-02------------------|
|02-02-02-0-2p0-2-3-3--02-02-02------------------|
|02-02-02-0-2p0-2-3-3--02-02-02--2-slide up >>>>-|


Bridge
Part 1
Both Guitars - Palm Mute throughout
|-----------------------------------------------------|
|-----------------------------------------------------|
|-----------------------------------------------------|
|-----------------------------------------------------|
|-----------------------------------------------------|
|2-0-2-0-5-0-2-0-2-0-7-0-2-0-5-0-220-2-0-5-0-2-0-2-0--|

|-----------------------------------------------------------------|
|-----------------------------------------------------------------|
|-----------------------------------------------------------------|
|--------------------------------------------------------xx-x5-x7






9. Here We Are

Intro: Electric 00:00
 C|--3--------------------------------------------|
 G|--5------------------5---------------1---------|
Eb|--4------------------2-------------0-----------|
Bb|--2------------------2---------0-2-------------|
 F|---------------------0-------------------------|
Bb|-----------------------------------------------|

Acoustic: 00:00
 C|-----------------------------------------------|
 G|--8--8----8-8----------------------------------|
Eb|--9--9--9-9-9-9-9-9----------------------------|
Bb|--9--9--9-9-9-9-9-9--9--9--9-9-10-10-10-10-10--|
 F|--7--7--7-7-7-7-7-7--7--7--7-7-10-10-10-10-10--|
Bb|---------------------7--7--7-7-10-10-10-10-10--|

Electric: 00:07
 C|--3-------------------------------|
 G|--5------------------5------------|
Eb|--4------------------2-------5----|
Bb|--2------------------2-------5----|
 F|---------------------0-------3----|
Bb|----------------------------------|

Acoustic: 00:07
 C|---------------------------------|
 G|--8--8----8-8--------------------|
Eb|--9--9--9-9-9-9-9-9--------------|
Bb|--9--9--9-9-9-9-9-9--9--9--9-10--|
 F|--7--7--7-7-7-7-7-7--7--7--7-10--|
Bb|---------------------7--7--7-10--|

Verse: Electric 00:15
 C|--3--------------------------------------------|
 G|--5------------------5---------------1---------|
Eb|--4------------------2-------------0-----------|
Bb|--2------------------2---------0-2-------------|
 F|---------------------0-------------------------|
Bb|-----------------------------------------------|x3

Verse: Acoustic 00:15
 C|-----------------------------------------------|
 G|--8--8----8-8----------------------------------|
Eb|--9--9--9-9-9-9-9-9----------------------------|
Bb|--9--9--9-9-9-9-9-9--9--9--9-9-10-10-10-10-10--|
 F|--7--7--7-7-7-7-7-7--7--7--7-7-10-10-10-10-10--|
Bb|---------------------7--7--7-7-10-10-10-10-10--|x3

Electric: 00:37
 C|--3-------------------------------|
 G|--5------------------5------------|
Eb|--4------------------2-------5----|
Bb|--2------------------2-------5----|
 F|---------------------0-------3----|
Bb|----------------------------------|

Acoustic: 00:37
 C|---------------------------------|
 G|--8--8----8-8--------------------|
Eb|--9--9--9-9-9-9-9-9--------------|
Bb|--9--9--9-9-9-9-9-9--9--9--9-10--|
 F|--7--7--7-7-7-7-7-7--7--7--7-10--|
Bb|---------------------7--7--7-10--|

Chorus: 00:43 there is an acoustic playing with the electric
 C|----------------------------------------------------------|
 G|----------------------------------------------------------|
Eb|-------------------7-7-7-7-7-x8-9-9-9-9-9-----------------|
Bb|--xxxx-5-5-5-5-5-5-7-7-7-7-7-x8-9-9-9-9-9-7-7-7-7-10-x10--|
 F|--xxxx-5-5-5-5-5-5-5-5-5-5-5-x6-7-7-7-7-7-7-7-7-7-10-x10--|
Bb|--xxxx-5-5-5-5-5-5------------------------7-7-7-7-10-x10--|

Fill-in for Chorus: 00:43
 C|-------------------2----------------------------------------|
 G|-------8-----------3------------5------------------------1--|
Eb|-------7-----------2------------4---------2------------0----|
Bb|-------5-----------0------------2---------2--------0-2------|
 F|-------5----------------------------------0-----------------|
Bb|-------5----------------------------------------------------|

Chorus continued: 00:59
 C|-----------------------------------------------------|
 G|-----------------------------------------------------|
Eb|--------------7-7-7-7-7-x8-9-9-9-9-9-----------------|
Bb|--5-5-5-5-5-5-7-7-7-7-7-x8-9-9-9-9-9-7-7-7-7-10-x10--|
 F|--5-5-5-5-5-5-5-5-5-5-5-x6-7-7-7-7-7-7-7-7-7-10-x10--|
Bb|--5-5-5-5-5-5------------------------7-7-7-7-10-x10--|

Fill-in for Chorus: 00:59
 C|--------------2----------------------------------------|
 G|--8-----------3------------5------------------------1--|
Eb|--7-----------2------------4---------2------------0----|
Bb|--5-----------0------------2---------2--------0-2------|
 F|--5----------------------------------0-----------------|
Bb|--5----------------------------------------------------|

Electric at 01:13
 C|----------------------------|
 G|----------------------------|
Eb|-------------------------5--|
Bb|-------------------------5--|
 F|--2--x2-0-2-0-2-2-0-7-xx-3--|
Bb|--2--x2-0-2-0-2-2-0-7-xx----|

Verse 2: Electric 01:21
 C|--3--------------------------------------------|
 G|--5------------------5---------------1---------|
Eb|--4------------------2-------------0-----------|
Bb|--2------------------2---------0-2-------------|
 F|---------------------0-------------------------|
Bb|-----------------------------------------------|x2

Acoustic: 01:21
 C|-----------------------------------------------|
 G|--8--8----8-8----------------------------------|
Eb|--9--9--9-9-9-9-9-9----------------------------|
Bb|--9--9--9-9-9-9-9-9--9--9--9-9-10-10-10-10-10--|
 F|--7--7--7-7-7-7-7-7--7--7--7-7-10-10-10-10-10--|
Bb|---------------------7--7--7-7-10-10-10-10-10--|x2

Electric continued: 01:35
 C|--3--------3-----------------------------------|
 G|--5---------5--------5---------------1---------|
Eb|--4----------4-------2-------------0-----------|
Bb|--2------------------2---------0-2-------------|
 F|---------------------0-------------------------|
Bb|-----------------------------------------------|

Acoustic continued: 01:35
 C|-----------------------------------------------|
 G|--8--8----8-8----------------------------------|
Eb|--9--9--9-9-9-9-9-9----------------------------|
Bb|--9--9--9-9-9-9-9-9--9--9--9-9-10-10-10-10-10--|
 F|--7--7--7-7-7-7-7-7--7--7--7-7-10-10-10-10-10--|
Bb|---------------------7--7--7-7-10-10-10-10-10--|

Electric continued: 01:43
 C|--3------------------------------|
 G|--5--5-5--5-5-5--5--5-5-5-5-5-5--|
Eb|--4------4------4---2-------5----|
Bb|--2-----------------2-------5----|
 F|--------------------0-------3----|
Bb|---------------------------------|

Acoustic continued: 01:43
 C|---------------------------------|
 G|--8--8----8-8--------------------|
Eb|--9--9--9-9-9-9-9-9--------------|
Bb|--9--9--9-9-9-9-9-9--9--9--9-10--|
 F|--7--7--7-7-7-7-7-7--7--7--7-10--|
Bb|---------------------7--7--7-10--|

Chorus: 01:49 there is an acoustic playing with the electric
 C|----------------------------------------------------------|
 G|----------------------------------------------------------|
Eb|-------------------7-7-7-7-7-x8-9-9-9-9-9-----------------|
Bb|--xxxx-5-5-5-5-5-5-7-7-7-7-7-x8-9-9-9-9-9-7-7-7-7-10-x10--|
 F|--xxxx-5-5-5-5-5-5-5-5-5-5-5-x6-7-7-7-7-7-7-7-7-7-10-x10--|
Bb|--xxxx-5-5-5-5-5-5------------------------7-7-7-7-10-x10--|

Fill-in for Chorus: 01:49
 C|-------------------2----------------------------------------|
 G|-------8-----------3------------5------------------------1--|
Eb|-------7-----------2------------4---------2------------0----|
Bb|-------5-----------0------------2---------2--------0-2------|
 F|-------5----------------------------------0-----------------|
Bb|-------5----------------------------------------------------|

Chorus continued: 02:05
 C|-----------------------------------------------------|
 G|-----------------------------------------------------|
Eb|--------------7-7-7-7-7-x8-9-9-9-9-9-----------------|
Bb|--5-5-5-5-5-5-7-7-7-7-7-x8-9-9-9-9-9-7-7-7-7-10-x10--|
 F|--5-5-5-5-5-5-5-5-5-5-5-x6-7-7-7-7-7-7-7-7-7-10-x10--|
Bb|--5-5-5-5-5-5------------------------7-7-7-7-10-x10--|

Fill-in for Chorus: 02:05
 C|--------------2----------------------------------------|
 G|--8-----------3------------5------------------------1--|
Eb|--7-----------2------------4---------2------------0----|
Bb|--5-----------0------------2---------2--------0-2------|
 F|--5----------------------------------0-----------------|
Bb|--5----------------------------------------------------|

Bridge: 02:19 (acoustic struming with eletric)
 C|---------------------|
 G|---------------------|
Eb|---------------------|
Bb|---------------------|
 F|--9~~~~~~~~~~~~~~~3~~|
Bb|--9~~~~~~~~~~~~~~~3~~|

fill-in for 02:19
 C|--------------------|
 G|---0-0-0-0-1-1-1-1--|
Eb|--------------------|
Bb|--2-2-2-2-2-2-2-2---|
 F|--------------------|
Bb|--------------------|

Bridge: 02:27 both guitars(acoustic struming)
 C|--------------------------------------------|
 G|--------------------------------------------|
Eb|--5~~~~~~~~~~~~~~~--------------------------|
Bb|--5~~~~~~~~~~~~~~~7~~~~~~~~~~~~~~~5~~~~3~~~~|
 F|--3~~~~~~~~~~~~~~~7~~~~~~~~~~~~~~~5~~~~3~~~~|
Bb|------------------7~~~~~~~~~~~~~~~5~~~~3~~~~|

Fill-in guitar for 02:27
 C|-----------------------------------------------|
 G|-----------------------------------------------|
Eb|---0-0-0-0-0--2-2-2-2-2--0-0-0-0-0--2-2-2-2-2--|
Bb|--2-2-2-2-2--2-2-2-2-2--0-0-0-0-0--0-0-0-0-0---|
 F|-----------------------------------------------|
Bb|-----------------------------------------------|

both guitars(acoustic struming) 02:41
 C|-------------------------------------------------|
 G|-------------------------------------------------|
Eb|--5~~~~~~~~~~~~~~~-------------------------------|
Bb|--5~~~~~~~~~~~~~~~7~~~~~~~~~~~~~~~5~~~~3~~~~2~~~~|
 F|--3~~~~~~~~~~~~~~~7~~~~~~~~~~~~~~~5~~~~3~~~~2~~~~|
Bb|------------------7~~~~~~~~~~~~~~~5~~~~3~~~~2~~~~|

Fill-in guitar for 02:41
 C|--------------------------------------------------|
 G|-----------------------------------------------5--|
Eb|---0-0-0-0-0--2-2-2-2-2--0-0-0-0-0--2-2-2-2-2--4--|
Bb|--2-2-2-2-2--2-2-2-2-2--0-0-0-0-0--0-0-0-0-0---2--|
 F|--------------------------------------------------|
Bb|--------------------------------------------------|

Solo: 02:58
 C|---------------------------------17----------------------12-14-15~~|
 G|---------------------------------------------------12-15-----------|
Eb|--------12-14-14brbrb-14-12----12---14brb----12brb-----------------|
Bb|--12/14---------------------14------------14-----------------------|
 F|-------------------------------------------------------------------|
Bb|-------------------------------------------------------------------|

Solo continued: 03:06
 C|--14brb-12-10-12-12--12/14-14-14/15-15-15/17-19-19~~~~19---17~~17--|
 G|---------------------------------------------------------17--------|
Eb|-------------------------------------------------------------------|
Bb|-------------------------------------------------------------------|
 F|-------------------------------------------------------------------|
Bb|-------------------------------------------------------------------|

Solo continued: 03:21
 C|--15\12-12b-12brb12brb12brb--------10--------------10h12-10h12-14-15--|
 G|---------------------------10h12-10--10-12brb-10h12-------------------|
Eb|----------------------------------------------------------------------|
Bb|----------------------------------------------------------------------|
 F|----------------------------------------------------------------------|
Bb|----------------------------------------------------------------------|

Fill-in for Solo: acoustic 03:00
 C|-----------------------------------------------------|
 G|-----------------------------------------------------|
Eb|--------------7-7-7-7-7-x8-9-9-9-9-9-----------------|
Bb|--5-5-5-5-5-5-7-7-7-7-7-x8-9-9-9-9-9-7-7-7-7-10-x10--|
 F|--5-5-5-5-5-5-5-5-5-5-5-x6-7-7-7-7-7-7-7-7-7-10-x10--|
Bb|--5-5-5-5-5-5------------------------7-7-7-7-10-x10--|







Fill-in: Eletric 03:00
 C|--------------2----------------------------------------|
 G|--8-----------3------------5------------------------1--|
Eb|--7-----------2------------4---------2------------0----|
Bb|--5-----------0------------2---------2--------0-2------|
 F|--5----------------------------------0-----------------|
Bb|--5----------------------------------------------------|

Acoustic continued: 03:14
 C|-----------------------------------------------------|
 G|-----------------------------------------------------|
Eb|--------------7-7-7-7-7-x8-9-9-9-9-9-----------------|
Bb|--5-5-5-5-5-5-7-7-7-7-7-x8-9-9-9-9-9-7-7-7-7-10-x10--|
 F|--5-5-5-5-5-5-5-5-5-5-5-x6-7-7-7-7-7-7-7-7-7-10-x10--|
Bb|--5-5-5-5-5-5------------------------7-7-7-7-10-x10--|



Eletric continued: 03:14
 C|--------------2-3-2------------------------------------|
 G|--8-----------3------------5------------------------1--|
Eb|--7-----------2------------4---------2------------0----|
Bb|--5-----------0------------2---------2--------0-2------|
 F|--5----------------------------------0-----------------|
Bb|--5----------------------------------------------------|

Chorus: 03:28 there is an acoustic playing with the electric
 C|----------------------------------------------------------|
 G|----------------------------------------------------------|
Eb|-------------------7-7-7-7-7-x8-9-9-9-9-9-----------------|
Bb|--xxxx-5-5-5-5-5-5-7-7-7-7-7-x8-9-9-9-9-9-7-7-7-7-10-x10--|
 F|--xxxx-5-5-5-5-5-5-5-5-5-5-5-x6-7-7-7-7-7-7-7-7-7-10-x10--|
Bb|--xxxx-5-5-5-5-5-5------------------------7-7-7-7-10-x10--|

Fill-in for Chorus: 03:28
 C|-------------------2----------------------------------------|
 G|-------8-----------3------------5------------------------1--|
Eb|-------7-----------2------------4---------2------------0----|
Bb|-------5-----------0------------2---------2--------0-2------|
 F|-------5----------------------------------0-----------------|
Bb|-------5----------------------------------------------------|

Chorus continued: 03:44
 C|-----------------------------------------------------|
 G|-----------------------------------------------------|
Eb|--------------7-7-7-7-7-x8-9-9-9-9-9-----------------|
Bb|--5-5-5-5-5-5-7-7-7-7-7-x8-9-9-9-9-9-7-7-7-7-10-x10--|
 F|--5-5-5-5-5-5-5-5-5-5-5-x6-7-7-7-7-7-7-7-7-7-10-x10--|
Bb|--5-5-5-5-5-5------------------------7-7-7-7-10-x10--|

Fill-in for Chorus continued: 03:44
 C|--------------2-2--2---------------------------------|
 G|--8--8--8--8--3------------5-5--5--5---5---5------5--|
Eb|--7-----------2------------4---------2----------4----|
Bb|--5-----------0------------2---------2--------0------|
 F|--5----------------------------------0---------------|
Bb|--5--------------------------------------------------|





Outro: 03:58
 C|--------------------------------|
 G|--------------------------------|
Eb|--------------------------------|
Bb|--5-5-5-5-5-5-7-7-7-7-10-x10-5--|
 F|--5-5-5-5-5-5-7-7-7-7-10-x10-5--|
Bb|--5-5-5-5-5-5-7-7-7-7-10-x10-5--|

Fill-in for Outro: 03:58
 C|--------------2--2---------------|
 G|--8--8--8--8--3---------------8--|
Eb|--7-----------2---------------7--|
Bb|--5-----------0---------------5--|
 F|--5---------------------------5--|
Bb|--5---------------------------5--|


10. Unknown Soldier

intro guitar 1: 00:07
 C|---------------------------------|
 G|---------------------------------|
Eb|---------------------------------|
Bb|--5-5-5--5-5-5--2-2-2--2-2-2--7--|
 F|--3-3-3--3-3-3--2-2-2--2-2-2--5--|
Bb|----------------2-2-2--2-2-2-----|x2

guitar 2: 00:07
 C|----5-7--------5-7--------5-7--------5-7-8-7--|
 G|--8-----7-8--8-----7-8--8-----7-8--8----------|
Eb|----------------------------------------------|
Bb|----------------------------------------------|
 F|----------------------------------------------|
Bb|----------------------------------------------|x2

Verse guitar 1: 00:23
 C|-----------------------|
 G|-----------------------|
Eb|-----------------------|
Bb|--2~~~~7~~~~10~~~~3~~~~|
 F|--2~~~~7~~~~10~~~~3~~~~|
Bb|--2~~~~7~~~~10~~~~3~~~~|x2

Verse guitar 2: 00:25
 C|--------------------------12---12---12---13--|
 G|---5--5--6--5--5--5--6--12---12---12---12----|
Eb|--4--4--4--4--4--4--4------------------------|
Bb|---------------------------------------------|
 F|---------------------------------------------|
Bb|---------------------------------------------|







Chorus guitar 1: 00:47
 C|-------------------------------------------------------|
 G|-------------------------------------------------------|
Eb|-------------------------------------------------------|
Bb|--5-5-55-5-5-55--9-9-99-9-9-99--10-10-1010-10-10-1010--|
 F|--5-5-55-5-5-55--9-9-99-9-9-99--10-10-1010-10-10-1010--|
Bb|--5-5-55-5-5-55--9-9-99-9-9-99--10-10-1010-10-10-1010--|

Chorus continued:
 C|--------------------|
 G|--------------------|
Eb|--------------------|
Bb|--5-5-55-7-7-77--5--|
 F|--5-5-55-5-5-55--3--|
Bb|--5-5-55-5-5-55-----|

Chorus guitar 2: 00:47
 C|----10--------10------|
 G|--8----7/8--8----7/8--|
Eb|----------------------|
Bb|----------------------|
 F|----------------------|
Bb|----------------------|x4

guitar 1: 01:04
 C|--------------------------|
 G|--------------------------|
Eb|--------------------------|
Bb|--5-5-5--2-2-2--2-2-2--7--|
 F|--3-3-3--2-2-2--2-2-2--5--|
Bb|---------2-2-2--2-2-2-----|

 C|---------------------------------|
 G|---------------------------------|
Eb|---------------------------------|
Bb|--5-5-5--5-5-5--2-2-2--2-2-2--7--|
 F|--3-3-3--3-3-3--2-2-2--2-2-2--5--|
Bb|----------------2-2-2--2-2-2-----|

guitar 2: 01:03
 C|----5-7--------5-7--------5-7--------5-7-8-7--|
 G|--8-----7-8--8-----7-8--8-----7-8--8----------|
Eb|----------------------------------------------|
Bb|----------------------------------------------|
 F|----------------------------------------------|
Bb|----------------------------------------------|x2

Verse guitar 1: 01:18
 C|-----------------------|
 G|-----------------------|
Eb|-----------------------|
Bb|--2~~~~7~~~~10~~~~3~~~~|
 F|--2~~~~7~~~~10~~~~3~~~~|
Bb|--2~~~~7~~~~10~~~~3~~~~|x2


Verse guitar 2: 01:18
 C|-----------------------------12---12---12---13--|
 G|---5--5--5--6--5--5--5--6--12---12---12---12----|
Eb|--4--4--4--4--4--4--4--4------------------------|
Bb|------------------------------------------------|
 F|------------------------------------------------|
Bb|------------------------------------------------|

Chorus guitar 1: 01:42
 C|-------------------------------------------------------|
 G|-------------------------------------------------------|
Eb|-------------------------------------------------------|
Bb|--5-5-55-5-5-55--9-9-99-9-9-99--10-10-1010-10-10-1010--|
 F|--5-5-55-5-5-55--9-9-99-9-9-99--10-10-1010-10-10-1010--|
Bb|--5-5-55-5-5-55--9-9-99-9-9-99--10-10-1010-10-10-1010--|

Chorus continued:
 C|-----------------|
 G|-----------------|
Eb|-----------------|
Bb|--5-5-55-7-7-77--|
 F|--5-5-55-5-5-55--|
Bb|--5-5-55-5-5-55--|play guitar 1 twice

Chorus guitar 2: 01:42
 C|----10--------10------|
 G|--8----7/8--8----7/8--|
Eb|----------------------|
Bb|----------------------|
 F|----------------------|
Bb|----------------------|x8

guitar 2: 02:15
 C|------------------------------------------------------12-12--|
 G|-----12---10-10-10---13-13-13---12-12-12---12-12-12----------|
Eb|--(9)---9----------9----------9----------9----------9--------|
Bb|-------------------------------------------------------------|
 F|-------------------------------------------------------------|
Bb|-------------------------------------------------------------|

guitar 2 continued:
 C|-------------------------------------------------------|
 G|----12-12---10-10---13-13---12-12-12----12-12---10-10--|
Eb|--9-------9-------9-------9-----------9-------9--------|
Bb|-------------------------------------------------------|
 F|-------------------------------------------------------|
Bb|-------------------------------------------------------|



guitar 2 continued: 02:29
 C|----12----12--12---------12--14--12--|
 G|--------12--12--12-10--12--12--12----|
Eb|--9----------------------------------|
Bb|-------------------------------------|
 F|-------------------------------------|
Bb|-------------------------------------|

guitar 1: 02:37
 C|---------------14--|
 G|-------------------|
Eb|-------------------|
Bb|-------------------|
 F|--5/7~~/9~/10~~----|
Bb|-------------------|

guitar 1: 02:44
 C|----------------------------------------------------------------|
 G|----------------------------------------------------------------|
Eb|----------------------------------------------------------------|
Bb|--5-5-55--5-5-55--9-9-99--9-9-99--1010-10-1010-10-1010-10-1010--|
 F|--5-5-55--5-5-55--9-9-99--9-9-99--1010-10-1010-10-1010-10-1010--|
Bb|--5-5-55--5-5-55--9-9-99--9-9-99--1010-10-1010-10-1010-10-1010--|

guitar 1 continued:
 C|--------------|
 G|--------------|
Eb|--------------|
Bb|--55-5--77-7--|
 F|--55-5--55-5--|
Bb|--55-5--55-5--|

Solo guitar 2: 02:45
 C|------------------------------------------------------------|
 G|-------------15------------15------------15-------------15--|
Eb|--11brb11h12----11brb11h12----11brb11h12-----11brb11h12-----|
Bb|------------------------------------------------------------|
 F|------------------------------------------------------------|
Bb|------------------------------------------------------------|

 C|------------------------------------------------10------------------|
 G|--12-10-12-12brb-10-12-10-12-12brb-10---10--10------10--10----------|
Eb|--------------------------------------12--12--12--12--12--12-11-12--|
Bb|--------------------------------------------------------------------|
 F|--------------------------------------------------------------------|
Bb|--------------------------------------------------------------------|






Chorus guitar 1: 03:01
 C|-------------------------------------------------------|
 G|-------------------------------------------------------|
Eb|-------------------------------------------------------|
Bb|--5-5-55-5-5-55--9-9-99-9-9-99--10-10-1010-10-10-1010--|
 F|--5-5-55-5-5-55--9-9-99-9-9-99--10-10-1010-10-10-1010--|
Bb|--5-5-55-5-5-55--9-9-99-9-9-99--10-10-1010-10-10-1010--|

Chorus continued:
 C|-----------------|
 G|-----------------|
Eb|-----------------|
Bb|--5-5-55-7-7-77--|
 F|--5-5-55-5-5-55--|
Bb|--5-5-55-5-5-55--|play guitar 1 twice

Chorus guitar 2: 03:01
 C|----10--------10------|
 G|--8----7/8--8----7/8--|
Eb|----------------------|
Bb|----------------------|
 F|----------------------|
Bb|----------------------|x8

guitar 2: 03:32
 C|----10--|
 G|--8-----|
Eb|--------|
Bb|--------|
 F|--------|
Bb|--------|

guitar 1: 03:32
 C|-------|
 G|-------|
Eb|-------|
Bb|--5~~~~|
 F|--5~~~~|
Bb|--5~~~~|

11. Had Enough

Intro:
Guitar 1
 C|------------------------------------------------------------------------|
 G|------------------------------------------------------------------------|
Eb|------------------------------------------------------------------------|
Bb|-2--0h2p0-2---0h2p0-5-5-4-0---2--0h2p0-2---0h2p0-5-5-4-0----------------|
 F|-2--0h2p0-2---0h2p0-5-5-4-0---2--0h2p0-2---0h2p0-5-5-4-0----------------|
Bb|-2--0h2p0-2---0h2p0-5-5-4-0---2--0h2p0-2---0h2p0-5-5-4-0----------------|

 C|------------------------------------------------------------|
 G|------------------------------------------------------------|
Eb|-----------------16-16-16-16-------------------16-16-16-16--|
Bb|-10-10-10h12-10---x--x--x--x---10-10-10h12-10---x--x--x--x--|X2
 F|-10-10-10h12-10--14-14-14-14---10-10-10h12-10--14-14-14-14--|
Bb|-10-10-10h12-10----------------10-10-10h12-10---------------|

Guitar 2
 C|------------------------------------------------------------------------|
 G|------------------------------------------------------------------------|
Eb|------------------------------------------------------------------------|
Bb|-2--0h2p0-2---0h2p0-5-5-4-0---2--0h2p0-2---0h2p0-5-5-4-0----------------|
 F|-2--0h2p0-2---0h2p0-5-5-4-0---2--0h2p0-2---0h2p0-5-5-4-0----------------|
Bb|-2--0h2p0-2---0h2p0-5-5-4-0---2--0h2p0-2---0h2p0-5-5-4-0----------------|

 C|------------------------------------------------------------------------|
 G|----------------12-12-12-12------------------12-12-12-12----------------|
Eb|-12-12-12/14-12--x--x--x--x---12-12-12/14-12--x--x--x--x----------------|
Bb|-10-10-10/12-10--9--9--9--9---10-10-10/12-10--9--9--9--9----------------|
 F|-10-10-10/12-10---------------10-10-10/12-10----------------------------|
Bb|-10-10-10/12-10---------------10-10-10/12-10----------------------------|

 C|------------------------------------------------------------------------|
 G|--------------------------------------------------------12-12-12-12-----|
Eb|--------12-11---------------12-11--------12-12-12/14-12--x--x--x--x-----|
Bb|--14-12-------14-12---14-12-------14-12--10-10-10/12-10--9--9--9--9-----|
 F|-----------------------------------------10-10-10/12-10-----------------|
Bb|-----------------------------------------10-10-10/12-10-----------------|

 C|-----------------------------|
 G|----------------12-12-12-12--|
Eb|-12-12-12-14-12--x--x--x--x--|
Bb|-10-10-10/12-10--9--9--9--9--|
 F|-10-10-10/12-10--------------|
Bb|-10-10-10/12-10--------------|

Verse:
Guitar 1&2
 C|--------------------------------------------|
 G|--------------------------------------------|
Eb|-9---9-12------------9---9-12------------9--|
Bb|-9---9-12--10---10-9-9---9-12--10---10-9-9--|
 F|-7---7-10--10---10-9-7---7-10--10---10-9-7--|
Bb|-----------10---10-9-----------10---10-9----|

Chorus:
Guitars 1&2
 C|------------------------------------------------------------------------|
 G|------------------------------------------------------------------------|
Eb|-4--4-4-4--11--11-11-11--12-12-----12--12-12-12--7--7-7-7--11--11-11-11-|
Bb|-2--2-2-2---9---9--9--9--10-10-x-x-10--10-10-10--5--5-5-5---9---9--9--9-|
 F|-2--2-2-2---9---9--9--9--10-10-x-x-10--10-10-10--5--5-5-5---9---9--9--9-|
Bb|-2--2-2-2---9---9--9--9--10-10-x-x-10--10-10-10--5--5-5-5---9---9--9--9-|

 C|--------|
 G|--------|
Eb|----2---|
Bb|-x--0---|X2
 F|-x--0---|
Bb|-x--0---|

Re-Intro:
Guitar 1
 C|------------------------------------------------------------------------|
 G|------------------------------------------------------------------------|
Eb|------------------------------------------------------------------------|
Bb|-2--0h2p0-2---0h2p0-5-5-4-0---2--0h2p0-2---0h2p0-5-5-4-0----------------|
 F|-2--0h2p0-2---0h2p0-5-5-4-0---2--0h2p0-2---0h2p0-5-5-4-0----------------|
Bb|-2--0h2p0-2---0h2p0-5-5-4-0---2--0h2p0-2---0h2p0-5-5-4-0----------------|

 C|------------------------------------------------------------|
 G|------------------------------------------------------------|
Eb|-----------------16-16-16-16-------------------16-16-16-16--|
Bb|-10-10-10h12-10---x--x--x--x---10-10-10h12-10---x--x--x--x--|
 F|-10-10-10h12-10--14-14-14-14---10-10-10h12-10--14-14-14-14--|
Bb|-10-10-10h12-10----------------10-10-10h12-10---------------|

Guitar 2
 C|------------------------------------------------------------------------|
 G|--------------------------------------------------------12-12-12-12-----|
Eb|--------12-11---------------12-11--------12-12-12/14-12--x--x--x--x-----|
Bb|--14-12-------14-12---14-12-------14-12--10-10-10/12-10--9--9--9--9-----|
 F|-----------------------------------------10-10-10/12-10-----------------|
Bb|-----------------------------------------10-10-10/12-10-----------------|

 C|-----------------------------|
 G|----------------12-12-12-12--|
Eb|-12-12-12-14-12--x--x--x--x--|
Bb|-10-10-10/12-10--9--9--9--9--|
 F|-10-10-10/12-10--------------|
Bb|-10-10-10/12-10--------------|

Verse 2:
Guitar 1&2
 C|--------------------------------------------|
 G|--------------------------------------------|
Eb|-9---9-12------------9---9-12------------9--|
Bb|-9---9-12--10---10-9-9---9-12--10---10-9-9--|
 F|-7---7-10--10---10-9-7---7-10--10---10-9-7--|
Bb|-----------10---10-9-----------10---10-9----|

Chorus 2:
Guitars 1&2
 C|------------------------------------------------------------------------|
 G|------------------------------------------------------------------------|
Eb|-4--4-4-4--11--11-11-11--12-12-----12--12-12-12--7--7-7-7--11--11-11-11-|
Bb|-2--2-2-2---9---9--9--9--10-10-x-x-10--10-10-10--5--5-5-5---9---9--9--9-|
 F|-2--2-2-2---9---9--9--9--10-10-x-x-10--10-10-10--5--5-5-5---9---9--9--9-|
Bb|-2--2-2-2---9---9--9--9--10-10-x-x-10--10-10-10--5--5-5-5---9---9--9--9-|

 C|--------|
 G|--------|
Eb|----2---|
Bb|-x--0---|X2
 F|-x--0---|
Bb|-x--0---|

Bridge:
Guitars 1&2  (Timing should be right)
 C|---------------------------|
 G|---------------------------|
Eb|---------------------------|
Bb|-2-------9--10-------5---4-|First time is pretty slow, when he starts 
 F|-2-------9--10-------5---5-|singing it speeds up, you should be able
Bb|-2-------9--10-------5---4-|to get it.

Final Chorus:
Guitar 1
 C|------------------------------------------------------------------------|
 G|------------------------------------------------------------------------|
Eb|-4--4-4-4--11--11-11-11--12-12-----12--12-12-12--7--7-7-7--11--11-11-11-|
Bb|-2--2-2-2---9---9--9--9--10-10-x-x-10--10-10-10--5--5-5-5---9---9--9--9-|
 F|-2--2-2-2---9---9--9--9--10-10-x-x-10--10-10-10--5--5-5-5---9---9--9--9-|
Bb|-2--2-2-2---9---9--9--9--10-10-x-x-10--10-10-10--5--5-5-5---9---9--9--9-|

 C|--------|
 G|--------|
Eb|----2---|
Bb|-x--0---|X2
 F|-x--0---|
Bb|-x--0---|

Guitar 2
 C|-19--15----------15--15/17--19--15----------15--15/17--19--15-----------|
 G|---------17--17---------------------17--17---------------------17--17---|
Eb|------------------------------------------------------------------------|
Bb|------------------------------------------------------------------------|
 F|------------------------------------------------------------------------|
Bb|------------------------------------------------------------------------|

 C|-15--15/17--19-19-19-19--17-17-17-17--|
 G|--------------------------------------|
Eb|--------------------------------------|
Bb|--------------------------------------|X2
 F|--------------------------------------|
Bb|--------------------------------------|

Outro:
Guitar 1
 C|------------------------------------------------------------------------|
 G|------------------------------------------------------------------------|
Eb|------------------------------------------------------------------------|
Bb|-2--0h2p0-2---0h2p0-5-5-4-0---2--0h2p0-2---0h2p0-5-5-4-0----------------|
 F|-2--0h2p0-2---0h2p0-5-5-4-0---2--0h2p0-2---0h2p0-5-5-4-0----------------|
Bb|-2--0h2p0-2---0h2p0-5-5-4-0---2--0h2p0-2---0h2p0-5-5-4-0----------------|

 C|------------------------------------------------------------|
 G|------------------------------------------------------------|
Eb|-----------------16-16-16-16-------------------16-16-16-16--|
Bb|-10-10-10h12-10---x--x--x--x---10-10-10h12-10---x--x--x--x--|X2
 F|-10-10-10h12-10--14-14-14-14---10-10-10h12-10--14-14-14-14--|
Bb|-10-10-10h12-10----------------10-10-10h12-10---------------|

Guitar 2:
 C|------------------------------------------------------------------------|
 G|--------------------------------------------------------12-12-12-12-----|
Eb|--------12-11---------------12-11--------12-12-12/14-12--x--x--x--x-----|
Bb|--14-12-------14-12---14-12-------14-12--10-10-10/12-10--9--9--9--9-----|
 F|-----------------------------------------10-10-10/12-10-----------------|
Bb|-----------------------------------------10-10-10/12-10-----------------|

 C|-----------------------------|
 G|----------------12-12-12-12--|
Eb|-12-12-12-14-12--x--x--x--x--|
Bb|-10-10-10/12-10--9--9--9--9--|X2
 F|-10-10-10/12-10--------------|
Bb|-10-10-10/12-10--------------|

Guitars 1&2
 C|-----|
 G|-----|
Eb|-----|
Bb|-2---|
 F|-2---|
Bb|-2---|







12. You Fight Me

Guitar 1 - with slide (:12)  6x
C |0s12-----|
G |---------|
Eb|---------|
Bb|---------|
F |---------|
Bb|---------|


Guitar 2 - Heavy Dist.       6x
C |---------------------------|
G |---------------------------|
Eb|---------------------------|
Bb|------2-0-2--0-0--0000-----|
F |------2-0-2--0-0--0000-----|
Bb|------2-0-2--0-0--0000-----|
                       ^^^^ 
VERSE/PRE-CHORUS
Guitar 1 w/slide - (1.02)
C |0s10--------------------10s7---|
G |-------------------------------|
Eb|-------------------------------|
Bb|-------------------------------|
F |-------------------------------|
Bb|-------------------------------|

CHORUS
Both Guitars - (1.09) 
C |-----------------------------------------------------------|
G |-----------------------------------------------------------|
Eb|-----------------------------------------------------------|
Bb|222-22-22-2--222-22-22-22-10101010101010101010101010101010-|
F |222-22-22-2--222-22-22-22-10101010101010101010101010101010-|
Bb|222-22-22-2--222-22-22-22-10101010101010101010101010101010-|

Both Guitars - (1:18)
C |-----------------------------------------------------------|
G |-----------------------------------------------------------|
Eb|-----------------------------------------------------------|
Bb|222-22-22-2--222-22-22-22-10101010101010101010101010101010-|
F |222-22-22-2--222-22-22-22-10101010101010101010101010101010-|
Bb|222-22-22-2--222-22-22-22-10101010101010101010101010101010-|

C |------------------------|
G |------------------------|
Eb|------------------------|
Bb|-555555555s9999-x-9<----|
F |-555555555s9999-x-9<----|
Bb|-555555555s9999-x-9<----|




VERSE
Guitar 1 - (1.32)                2x
C |0s12-----|
G |---------|
Eb|---------|
Bb|---------|
F |---------|
Bb|---------|


Guitar 2 - Heavy Dist.  (1.32)   2x
C |---------------------------|
G |---------------------------|
Eb|---------------------------|
Bb|------2-0-2--0-0--0000-----|
F |------2-0-2--0-0--0000-----|
Bb|------2-0-2--0-0--0000-----|
                       ^^^^ 
Guitar 1 - (1.54)
C |10s7-----------|
G |---------------|
Eb|---------------|
Bb|---------------|
F |---------------|
Bb|---------------|

Both Guitars - (2.06)
C |-------------------------------------------------|
G |-------------------------------------------------|
Eb|-------------------------------------------------|
Bb|-xxxx-10101010101010101010101010101010--14<<<<---|
F |-xxxx-10101010101010101010101010101010--14<<<<---|
Bb|-xxxx-10101010101010101010101010101010--14<<<<---|

Both Guitars - (2.17)
C |------------------------------------------|
G |------------------------------------------|
Eb|------------------------------------------|
Bb|-xxxx-10101010101010101010101010101010----|
F |-xxxx-10101010101010101010101010101010----|
Bb|-xxxx-10101010101010101010101010101010----|


Guitar 1 (2.21)               v--- tremolo picking
C |--------------15-17-19-22-24--------|
G |17-19-20-22-------------------------|
Eb|------------------------------------|
Bb|------------------------------------|
F |------------------------------------|
Bb|------------------------------------|






Guitar 2 2.21
C |------------------------------------|
G |------------------------------------|
Eb|------------------------------------|
Bb|222-22-22-2--222-22-22-22-10--------|
F |222-22-22-2--222-22-22-22-10-(32x)--|
Bb|222-22-22-2--222-22-22-22-10--------|


Guitar 1 - (2.34)            v--- tremolo picking
C |--------------15-17-19-22-24--------|
G |17-19-20-22-------------------------|
Eb|------------------------------------|
Bb|------------------------------------|
F |------------------------------------|
Bb|------------------------------------|

Guitar 2 - (2.34)
C |-----------------------------------------------------------|
G |-----------------------------------------------------------|
Eb|-----------------------------------------------------------|
Bb|222-22-22-2--222-22-22-22-10101010101010101010101010101010-|
F |222-22-22-2--222-22-22-22-10101010101010101010101010101010-|
Bb|222-22-22-2--222-22-22-22-10101010101010101010101010101010-|
Guitar 2 continued....
C |------------------------|
G |------------------------|
Eb|------------------------|
Bb|-555555555s9999-x-9<----|
F |-555555555s9999-x-9<----|
Bb|-555555555s9999-x-9<----|

Repeat INTRO 2x (2.50)
comments
print report bad tab
15 comments total. Showing first comments.
0 reply
U B the band wrote on October 17 2006, 10:51 am

Okay.....I'm going to pretty much speak for everyone that you took tabs from. First some of...all of these tabs took time and lots of effort. If your going to do an "album tab" do it yourself...with your own effort put into it. Second why make an "album tab" of tabs that are already on the site. You took three of my tabs that I worked hard one well two but still, at least you should have said who really tabbed them.

0 reply
Roybordom wrote on October 19 2006, 07:58 pm

U B the band is right, but you cant exactly bitch at someone who isnt even registered cuz that means they arent here.

0 reply
wassapall wrote on October 20 2006, 11:23 am

Breaking Benjamin Rules !!!!!!!!!!!!!!!!!!!!!!!!!!! Man,There Is No Other Alternative Metal/Rock Band As Great As They Are And This Tab May Be Copied From The Other Tabs,But As Long As It's Correct,It Does'nt Make A Difference To Me Or My Band Who Have Been Performing Breaking Benjamin Songs In The Past,And Now With Phobia's Release,we'll Be Performing Even More Songs Like 'Diary Of Jane' & 'Breath'.As For The Tab,It's Just A Copy Of All The Songs Put Together In One Huge List,but it's a correct Tab(Naturly).

I want to post or [tab]
guest
You may want to rate the tab now too:
select rating
Please do not post tabs as comments. Select "correction" instead!