Oops, an error
Loading. Please wait.

Phobia Tab

ver2
ver2

Album

More versions @911Tabs.com
25,458 views 18 this week
11 commentsread comments
1 2 3 4 5
excellent!
x 15
add to favorites launch autoscroll
font size
0
reset
Autoscroll
+/-
esc
set tempo
stop
Contributor
WARNING: You are trying to view
                                    content from Ultimate-Guitar.com
                                    in an unauthorized application,
                                    which is prohibited.

                                    Please use an official Ultimate
                                    Guitar Tabs application for iPhone,
                                    iPad or Android to access legitimate
                                    chords, guitar, bass, and drum tabs
                                    from Ultimate-Guitar.com database.

                                    Type "ultimate guitar tabs" in Apple
                                    App Store's or Android Market's
                                    search to find the application.
Breaking Benjamin                      * UPDATED 3/11/2008 *
Phobia
Tabbed by U B the band
Tunings - Standard (E A D G B e)
          Drop D   (D A D G B E)
          Drop Db  (Db Ab Db Gb Bb Eb)
          Drop C   (C G C F A D)
          Drop Bb  (Bb F Bb Eb G C)

01. Intro
02. The Diary of Jane
03. Breath
04. You
05. Evil Angel
06. Until The End
07. Dance With The Devil
08. Topless
09. Here We Are
10. Unknown Soldier
11. Had Enough
12. You Fight Me
13. Outro
14. The Diary of Jane (Acoustic)

*Legend at the very bottom*



01. Intro

Intro guitar 1: 00:12
 C|-----------------------------------------------------|
 G|--------------6----5-------------------6----5--------|
Eb|----7----5--------------7----7----5---------------7--|
Bb|--0---00---00---00---00----0---00---00---00----00----|
 F|-----------------------------------------------------|
Bb|-----------------------------------------------------|

Guitar 2, Bass and Drums enter

guitar 1: 00:20
 C|---------------------------------------------------|
 G|-------------6----5-------------------6----5-------|
Eb|---7----5--------------7----7----5--------------7--|
Bb|---------------------------------------------------|
 F|---------------------------------------------------|
Bb|---------------------------------------------------|

guitar 2: 00:20
 C|---------------------------------------------------|
 G|---------------------------------------------------|
Eb|---------------------------------------------------|
Bb|------7--7--7--7--7h8----------7--7--7--7--7h8-----|
 F|---------------------------------------------------|
Bb|--0------------------------8-----------------------|

guitar 1: 00:27
 C|---------------------------------------------------|
 G|-------------6----5-------------------6----5----8--|
Eb|---7----5--------------7----7----5-----------------|
Bb|---------------------------------------------------|
 F|---------------------------------------------------|
Bb|---------------------------------------------------|

guitar 2: 00:27
 C|---------------------------------------------------|
 G|---------------------------------------------------|
Eb|---------------------------------------------------|
Bb|------7--7--7--7--7h8----------7--7--7--7--7h8-----|
 F|---------------------------------------------------|
Bb|--0------------------------8-----------------------|

guitar 1: 00:35
 C|---------------------------------------------------|
 G|-------------6----5---------6----5---8/10--8--6\5--|
Eb|---7----5--------------7---------------------------|
Bb|---------------------------------------------------|
 F|---------------------------------------------------|
Bb|---------------------------------------------------|

guitar 2: 00:34
 C|---------------------------------------------------|
 G|---------------------------------------------------|
Eb|---------------------------------------------------|
Bb|---------8--8--8--8--8-----------------------------|
 F|-------------------------------10--10------10--10--|
Bb|--8-7-5-----------------5-7-8----------10----------|

guitar 1: 00:43
 C|---------------------------------------------------|
 G|------------6----5---------------------------------|
Eb|--7----5--------------7----------------------------|
Bb|---------------------------------------------------|
 F|---------------------------------------------------|
Bb|---------------------------------------------------|

guitar 2: 00:43
 C|---------------------------------------------------|
 G|---------------------------------------------------|
Eb|---------------------------------------------------|
Bb|------7--7--7--7--7h8----------7--7--7--7--7h8-----|
 F|---------------------------------------------------|
Bb|--0------------------------8-----------------------|

guitar 2: 00:50
 C|---------------------------------------------------|
 G|---------------------------------------------------|
Eb|---------------------------------------------------|
Bb|------7--7--7--7--7h8----------7--7--7--7--7h8-----|
 F|---------------------------------------------------|
Bb|--0------------------------8-----------------------|

guitar 2: 00:57
 C|---------------------------------------------------|
 G|---------------------------------------------------|
Eb|---------------------------------------------------|
Bb|---------8--8--8--8--8-----------------------------|
 F|-------------------------------10--10------10--10--|
Bb|--8-7-5-----------------5-7-8----------10----------|

guitar 2: 01:06
 C|---------------------------------------------------|
 G|---------------------------------------------------|
Eb|---------------------------------------------------|
Bb|---------------------------------------------------|
 F|---------------------------------------------------|
Bb|--0------------------------------------------------|



02. The Diary of Jane

Intro Guitar 1 (Ben): 00:00 clean with Delay
 C|---------------------------------------------------------------|
 G|-----------------------------------------------13-13-----------|
Eb|-----14----14----14----14----15-15-14----14----------15----14--|
Bb|--12----12----12----12----12----------12----12----------12-----|
 F|---------------------------------------------------------------|
Bb|---------------------------------------------------------------|
                               |Delay off|       |Delay off|

Guitar 2 (Aaron) 00:00 Silent

Guitar 1 (Ben): 00:05 clean with Delay 
 C|---------------------------------------------------------------|
 G|-----------------------------------------------13-13-----------|
Eb|-----14----14----14----14----15-15-14----14----------15----14--|
Bb|--12----12----12----12----12----------12----12----------12-----|
 F|---------------------------------------------------------------|
Bb|---------------------------------------------------------------|
                               |Delay off|       |Delay off|

Guitar 2 (Aaron): 00:05 with wah and distortion
 C|---------------------------------------------------------------|
 G|---------------------------------------------------------------|
Eb|---------------------------------------------------------------|
Bb|---------------------------------------------------------------|
 F|--5------------------------------------------------------------|
Bb|---------------------------------------------------------------|

Guitar 1 (Ben): 00:10 clean with Delay
 C|---------------------------------------------------------------|
 G|-----------------------------------------------13-13-----------|
Eb|-----14----14----14----14----15-15-14----14----------15----14--|
Bb|--12----12----12----12----12----------12----12----------12-----|
 F|---------------------------------------------------------------|
Bb|---------------------------------------------------------------|
                               |Delay off|       |Delay off|

Guitar 2 (Aaron): 00:11 with wah and distortion
 C|---------------------------------------------------------------|
 G|---------------------------------------------------------------|
Eb|---------------------------------------------------------------|
Bb|---------------------------------------------------------------|
 F|--1------------------------------------------------------------|
Bb|---------------------------------------------------------------|

Guitar 1: (Ben) 00:17
 C|---------------------------------------------------------------|
 G|-----------------13-13-------------------------13-13-----------|
Eb|-----14----14----------15----14----14----14----------15----14--|
Bb|--12----12----12----------12----12----12----12----------12-----|
 F|---------------------------------------------------------------|
Bb|---------------------------------------------------------------|
                   |Delay off|                   |Delay off|

Guitar 2: 00:17 with wah, the zeros are optional
 C|---------------------------------------------------------------|
 G|---------------------------------------------------------------|
Eb|---------------------------------------------------------------|
Bb|--0---0--0-0-0-0-0-0-0--0--0----0---0--0-0-0-0-0-0-0--0--0--0--|
 F|--5---5--5-5-5-5-5-5-5--5--5/6--5---5--5-5-5-5-5-5-5--5--5--5--|
Bb|---------------------------------------------------------------|

Guitar 1: 00:23 clean with Delay
 C|----------------------------------------------------------|
 G|-----------------13-13------------------------------------|
Eb|-----14----14----------15----14----14----14-----14brb-----|
Bb|--12----12----12----------12----12----12----12------------|
 F|----------------------------------------------------------|
Bb|----------------------------------------------------------|
                   |Delay off|         Distortion--^--Delay off

Guitar 2: 00:23 Distortion with wah, the zeros are optional
 C|----------------------------------------------------------|
 G|----------------------------------------------------------|
Eb|----------------------------------------------------------|
Bb|--0---0--0-0-0-0-0-0-0--0--0----0--0-0-0-0-0000--8--8--8--|
 F|--5---5--5-5-5-5-5-5-5--5--5/6--5--5-5-5-5-5555--8--8--8--|
Bb|-------------------------------------------------8--8--8--|
                                                   |wah off| 

Guitar 1: 00:28 Distorted
 C|-------------------------------------------------------------------|
 G|-----------------13-13---------------------------------------------|
Eb|-----14-----14----------15----14-----14-----14---------------------|
Bb|--12-----12----12----------12-----12-----12----12-14brb------------|
 F|-------------------------------------------------------------------|
Bb|-------------------------------------------------------------------|

Guitar 2: 00:28
 C|-------------------------------------------------------------------|
 G|-------------------------------------------------------------------|
Eb|-------------------------------------------------------------------|
Bb|------------------(5)-----------------------------(5)--------------|
 F|--0-0-5p0-0-7p3-0--3--0-8p7-0-3p2-0-0-5p0-0-7p3-0--3--0-8p7-0-3p2--|
Bb|--0-0-5p0-0-7p3-0-----0-8p7-0-3p2-0-0-5p0-0-7p3-0-----0-8p7-0-3p2--|

Guitar 1: 00:34 Distorted
 C|------------------------------------------------------------|
 G|-----------------13-13--------------------------------------|
Eb|-----14-----14----------15----14-----14-----14--------------|
Bb|--12-----12----12----------12-----12-----12----12-14brb-----|
 F|------------------------------------------------------------|
Bb|------------------------------------------------------------|

Guitar 2: 00:34 Distorted
 C|------------------------------------------------------------|
 G|------------------------------------------------------------|
Eb|------------------------------------------------------------|
Bb|------------------(5)------------------------------8--8--8--|
 F|--0-0-5p0-0-7p3-0--3--0-8p7-0-3p2-0-0-5p0-0-7p3-0--8--8--8--|
Bb|--0-0-5p0-0-7p3-0-----0-8p7-0-3p2-0-0-5p0-0-7p3-0--8--8--8--|

Verse 1 Guitar 1: 00:40
 C|----------------------------------------------------------------|
 G|----------------------------------------------------------------|
Eb|----------------------------------------------------------------|
Bb|-----------------------------------------------------5-------8--|
 F|-----------------------------------------------------5--0-0--8--|
Bb|-----------------------------------------------------5--0-0--8--|x2
                                                           pmpm

Verse 1 Guitar 2: 00:40
 C|----------------------------------------------------------------|
 G|----------------------------------------------------------------|
Eb|----------------------------------------------------------------|
Bb|---------------5*------5*----------------5*------5*--5-------8--|
 F|--0-0--0--0-0---5*0-0---5*0-0--0000--0-0--5*0-0---5*-5--0-0--8--|
Bb|--0-0--0--0-0-----0-0-----0-0--0000--0-0----0-0------5--0-0--8--|x2
     pmpm pm pmpm    pmpm    pmpm pmpm  pmpm   pmpm        pmpm

Chorus Guitar 1: 00:57
 C|-----------------------------------------------------------------|
 G|-----------------------------------------------------------------|
Eb|-----------------------------------------------------------------|
Bb|--0------0------0----0----0----0------8----8----8----8----8--8---|
 F|--0------0------0----0----0----0------8----8----8----8----8--8---|
Bb|--0------0------0----0----0----0------8----8----8----8----8--8---|

Chorus Guitar 2: 00:57
 C|--13-13--12-12--13-13--12-12--13-15---13-13--12-12-15-1515-1515--|
 G|---x--x---x--x---x--x---x--x---x--x----x--x---x--x--x--x-x--x-x--|
Eb|--10-10---9--9--10-10---9--9--10-12---10-10---9--9-12-1212-1212--|
Bb|-----------------------------------------------------------------|
 F|-----------------------------------------------------------------|
Bb|-----------------------------------------------------------------|

Chorus Guitar 1: 01:03
 C|-----------------------------------------------------------------|
 G|-----------------------------------------------------------------|
Eb|--10--10--10--10-10-10---9---9---9---9--9--9---------------------|
Bb|--10--10--10--10-10-10---10--10--10--10-10-10-8--------8---------|
 F|--8---8---8---8--8--8----7---7---7---7--7--7--8--------8---------|
Bb|----------------------------------------------8--------8---------|

Chorus guitar 2: 01:03
 C|--17-17-17-17-17/18\17---15-15-15-15--15-15---10101010-12121212--|
 G|---x--x--x--x--x--x--x----x--x--x--x---x--x----x-x-x-x--x-x-x-x--|
Eb|--14-14-14-14-14/15\14---12-12-12-12--12-12----7-7-7-7--9-9-9-9--|
Bb|-----------------------------------------------------------------|
 F|-----------------------------------------------------------------|
Bb|-----------------------------------------------------------------|

Chorus Guitar 1: 01:10
 C|---------------------------------------------------------|
 G|---------------------------------------------------------|
Eb|---------------------------------------------------------|
Bb|--8--------8----------10-------10-------10-------10------|
 F|--8--------8----------10-------10-------10-------10------|
Bb|--8--------8----------10-------10-------10-------10------|

Chorus Guitar 2: 01:10
 C|--17171717-15151515---13131313-15151515-18181818-171717--|
 G|---x-x-x-x--x-x-x-x----x-x-x-x--x-x-x-x--x-x-x-x--x-x-x--|
Eb|--14141414-12121212----9-9-9-9-12121212-15151515-141414--|
Bb|---------------------------------------------------------|
 F|---------------------------------------------------------|
Bb|---------------------------------------------------------|

Guitar 1: 01:14 Distorted
 C|------------------------------------------------------------|
 G|-----------------13-13--------------------------------------|
Eb|-----14-----14----------15----14-----14-----14--------------|
Bb|--12-----12----12----------12-----12-----12----12-14brb-----|
 F|------------------------------------------------------------|
Bb|------------------------------------------------------------|

Guitar 2: 01:14 Distorted
 C|------------------------------------------------------------|
 G|------------------------------------------------------------|
Eb|------------------------------------------------------------|
Bb|------------------(5)------------------------------8--8--8--|
 F|--0-0-5p0-0-7p3-0--3--0-8p7-0-3p2-0-0-5p0-0-7p3-0--8--8--8--|
Bb|--0-0-5p0-0-7p3-0-----0-8p7-0-3p2-0-0-5p0-0-7p3-0--8--8--8--|

Verse 2 Guitar 1: 01:20
 C|----------------------------------------------------------------|
 G|----------------------------------------------------------------|
Eb|----------------------------------------------------------------|
Bb|-----------------------------------------------------5-------8--|
 F|-----------------------------------------------------5--0-0--8--|
Bb|-----------------------------------------------------5--0-0--8--|
                                                           pmpm
Verse Guitar 2: 01:20
 C|----------------------------------------------------------------|
 G|----------------------------------------------------------------|
Eb|----------------------------------------------------------------|
Bb|---------------5*------5*----------------5*------5*--5-------8--|
 F|--0-0--0--0-0---5*0-0---5*0-0--0000--0-0--5*0-0---5*-5--0-0--8--|
Bb|--0-0--0--0-0-----0-0-----0-0--0000--0-0----0-0------5--0-0--8--|
     pmpm pm pmpm    pmpm    pmpm pmpm  pmpm   pmpm        pmpm

Verse 2 Guitar 1: 01:29
 C|---------------------------------------------------------------|
 G|---------------------------------------------------------------|
Eb|---------------------------------------------------------------|
Bb|-----------------------------------------------------5----8-8--|
 F|-----------------------------------------------------5----8-8--|
Bb|-----------------------------------------------------5----8-8--|

Verse 2 Guitar 2: 01:29
 C|---------------------------------------------------------------|
 G|---------------------------------------------------------------|
Eb|---------------------------------------------------------------|
Bb|---------------5*------5*----------------5*------5*--5----8-8--|
 F|--0-0--0--0-0---5*0-0---5*0-0--0000--0-0--5*0-0---5*-5----8-8--|
Bb|--0-0--0--0-0-----0-0-----0-0--0000--0-0----0-0------5----8-8--|
     pmpm pm pmpm    pmpm    pmpm pmpm  pmpm   pmpm

Chorus Guitar 1: 01:37/01:49
 C|-----------------------------------------------------------------|
 G|-----------------------------------------------------------------|
Eb|-----------------------------------------------------------------|
Bb|--0------0------0----0----0----0------8----8----8----8----8--8---|
 F|--0------0------0----0----0----0------8----8----8----8----8--8---|
Bb|--0------0------0----0----0----0------8----8----8----8----8--8---|

Chorus Guitar 2: 01:37/01:49
 C|--13-13--12-12--13-13--12-12--13-15---13-13--12-12-15-1515-1515--|
 G|---x--x---x--x---x--x---x--x---x--x----x--x---x--x--x--x-x--x-x--|
Eb|--10-10---9--9--10-10---9--9--10-12---10-10---9--9-12-1212-1212--|
Bb|-----------------------------------------------------------------|
 F|-----------------------------------------------------------------|
Bb|-----------------------------------------------------------------|

Chorus Guitar 1: 01:43/01:55
 C|----------------------------------------------|
 G|----------------------------------------------|
Eb|--10--10--10--10-10-10--9---9---9---9--9--9---|
Bb|--10--10--10--10-10-10--10--10--10--10-10-10--|
 F|--8---8---8---8--8--8---7---7---7---7--7--7---|
Bb|----------------------------------------------|

Chorus guitar 2: 01:43/01:55
 C|--17-17-17-17-17/18\17--15--15-15-15---15-15--|
 G|---x--x--x--x--x--x--x---x---x--x--x----x--x--|
Eb|--14-14-14-14-14/15\14--12--12-12-12---12-12--|
Bb|----------------------------------------------|
 F|----------------------------------------------|
Bb|----------------------------------------------|

Chorus Guitar 1: 02:00
 C|-----------------------------------------|
 G|-----------------------------------------|
Eb|-----------------------------------------|
Bb|--8---8---8---8------8---8---8---8--88---|
 F|--8---8---8---8------8---8---8---8--88---|
Bb|--8---8---8---8------8---8---8---8--88---|

Chorus Guitar 2: 02:00
 C|--10101010-12121212--17171717--15151515--|
 G|---x-x-x-x--x-x-x-x---x-x-x-x---x-x-x-x--|
Eb|---7-7-7-7--9-9-9-9--14141414--12121212--|
Bb|-----------------------------------------|
 F|-----------------------------------------|
Bb|-----------------------------------------|

Chorus Guitar 1: 02:03
 C|-----------------------------------------|
 G|-----------------------------------------|
Eb|-----------------------------------------|
Bb|--10--10--10--10----10--10--10--10-1010--|
 F|--10--10--10--10----10--10--10--10-1010--|
Bb|--10--10--10--10----10--10--10--10-1010--|

Chorus Guitar 2: 02:03
 C|--13131313-15151515--18181818--17171717--|
 G|---x-x-x-x--x-x-x-x---x-x-x-x---x-x-x-x--|
Eb|---9-9-9-9-12121212--15151515--14141414--|
Bb|-----------------------------------------|
 F|-----------------------------------------|
Bb|-----------------------------------------|

Bridge/Solo Guitar 1: 02:06
 C|-------------------------------------------------|
 G|-------------------------------------------------|
Eb|-------------------------------------------------|
Bb|-------------------------------------------------|
 F|--0-0--0--000-000-00-2/3--0-0--0--000-000-000-1--|
Bb|--0-0--0--000-000-00-2/3--0-0--0--000-000-000-1--|
     pmpm pm pmpmpmpmpm     pmpm pm pmpmpmpmpmpm

Solo Guitar 2: 02:06
 C|---------------------------17--------------------|
 G|--15-17------------------------13----------------|
Eb|--------17----------11h12----------12--\11-------|
Bb|---------------------------------------------12--|
 F|-------------------------------------------------|
Bb|-------------------------------------------------|

Bridge Guitar 1: 02:12
 C|-------------------------------------------------------|
 G|-------------------------------------------------------|
Eb|-------------------------------------------------------|
Bb|-------------------------------------------------------|
 F|--0-0--0--000-000-00-2/3--00-0-0------8p7-0-5h7-0-3\2--|
Bb|--0-0--0--000-000-00-2/3--00-0-0------8p7-0-5h7-0-3\2--|
     pmpm pm pmpmpmpmpm      pmpmpm

Solo Guitar 2: 02:12
 C|---------------------------------10--10----------------|
 G|--15-17-----------------------13-13b-13b---------------|
Eb|--------17----------11h12-14---------------------------|
Bb|-------------------------------------------------------|
 F|-------------------------------------------------------|
Bb|-------------------------------------------------------|
          Hold bend (Only bend G String)-^

Bridge Guitar 1: 02:18
 C|---------------------------------|
 G|---------------------------------|
Eb|---------------------------------|
Bb|--3--3--3--3--3---5--5--5--5--5--|
 F|--3--3--3--3--3---5--5--5--5--5--|
Bb|--3--3--3--3--3---5--5--5--5--5--|

Solo Guitar 2: 02:18
 C|------------------10-------------|
 G|--10--------------13b------------|
Eb|--13b----------------------------|
Bb|---------------------------------|
 F|---------------------------------|
Bb|---------------------------------|
   Release bend--^

Bridge Guitar 1: 02:23
 C|--------------------------------------------------|
 G|--------------------------------------------------|
Eb|--------------------------------------------------|
Bb|--------------------------------------------------|
 F|--0-0--0--000-000-00-2\3--0-0--0--000-000-000--5--|
Bb|--0-0--0--000-000-00-2\3--0-0--0--000-000-000--5--|
     pmpm pm pmpmpmpmpm     pmpm pm pmpmpmpmpmpm

Solo Guitar 2: 02:23
 C|--------------------------------------------------|
 G|--15--17------17---------------13-----------------|
Eb|--19-----17---17----11h12-/14------12--\11--------|
Bb|----------------------------------------------12--|
 F|--------------------------------------------------|
Bb|--------------------------------------------------|

Bridge Guitar 1: 02:29
 C|------------------------------------|
 G|------------------------------------|
Eb|------------------------------------|
Bb|--3--3--3--3--3-3--5-5-5-8-8p7-5\3--|
 F|--3--3--3--3--3-3--5-5-5-8-8p7-5\3--|
Bb|--3--3--3--3--3-3--5-5-5-8-8p7-5\3--|

Solo Guitar 2: 02:29
 C|--13-12--13---12---15---13-15-------|
 G|-----13-----------------------------|
Eb|------------------------------------|
Bb|------------------------------------|
 F|------------------------------------|
Bb|------------------------------------|

Chorus Guitar 1: 02:35/02:46
 C|-----------------------------------------------------------------|
 G|-----------------------------------------------------------------|
Eb|-----------------------------------------------------------------|
Bb|--0------0------0----0----0----0------8----8----8----8----8--8---|
 F|--0------0------0----0----0----0------8----8----8----8----8--8---|
Bb|--0------0------0----0----0----0------8----8----8----8----8--8---|

Chorus Guitar 2: 02:35/02:46
 C|--13-13--12-12--13-13--12-12--13-15---13-13--12-12-15-1515-1515--|
 G|---x--x---x--x---x--x---x--x---x--x----x--x---x--x--x--x-x--x-x--|
Eb|--10-10---9--9--10-10---9--9--10-12---10-10---9--9-12-1212-1212--|
Bb|-----------------------------------------------------------------|
 F|-----------------------------------------------------------------|
Bb|-----------------------------------------------------------------|

Sound Effects at 02:36/02:47
 C|-----------------------------------------------------------------|
 G|-----------------------------------------------------------------|
Eb|---7-------------9----------10---------10-------12-------14------|
Bb|-----------------------------------------------------------------|
 F|-----------------------------------------------------------------|
Bb|-----------------------------------------------------------------|

Chorus Guitar 1: 02:41/02:52
 C|----------------------------------------------|
 G|----------------------------------------------|
Eb|--10--10--10--10-10-10--9---9---9---9--9--9---|
Bb|--10--10--10--10-10-10--10--10--10--10-10-10--|
 F|--8---8---8---8--8--8---7---7---7---7--7--7---|
Bb|----------------------------------------------|

Chorus guitar 2: 02:41/02:52
 C|--17-17-17-17-17/18\17--15--15-15-15---15-15--|
 G|---x--x--x--x--x--x--x---x---x--x--x----x--x--|
Eb|--14-14-14-14-14/15\14--12--12-12-12---12-12--|
Bb|----------------------------------------------|
 F|----------------------------------------------|
Bb|----------------------------------------------|

Sound Effects at 02:42/02:53
 C|----------------------------------------------|
 G|----------------------------------------------|
Eb|--14------12------10-------12-----10-----9----|
Bb|----------------------------------------------|
 F|----------------------------------------------|
Bb|----------------------------------------------|

Outro Guitar 1: 02:58
 C|-------------------------------------------------------------------|
 G|-----------------13-13---------------------------------------------|
Eb|-----14-----14----------15----14-----14-----14---------------------|
Bb|--12-----12----12----------12-----12-----12----12-14brb------------|
 F|-------------------------------------------------------------------|
Bb|-------------------------------------------------------------------|

Outro Guitar 2: 02:58
 C|-------------------------------------------------------------------|
 G|-------------------------------------------------------------------|
Eb|-------------------------------------------------------------------|
Bb|------------------(5)-----------------------------(5)--------------|
 F|--0-0-5p0-0-7p3-0--3--0-8p7-0-3p2-0-0-5p0-0-7p3-0--3--0-8p7-0-3p2--|
Bb|--0-0-5p0-0-7p3-0-----0-8p7-0-3p2-0-0-5p0-0-7p3-0-----0-8p7-0-3p2--|

Outro Guitar 1: 03:04 Distorted
 C|---------------------------------------------------------------|
 G|-----------------13-13-----------------------------------------|
Eb|-----14-----14----------15----14-----14-----14-----------------|
Bb|--12-----12----12----------12-----12-----12----12-14brb----14--|
 F|------------------------------------------------------------0--|
Bb|------------------------------------------------------------0--|

Guitar 2: 03:04 Distorted
 C|---------------------------------------------------------------|
 G|---------------------------------------------------------------|
Eb|------------------------------------------------------------9--|
Bb|------------------(5)------------------------------8--8--8--0--|
 F|--0-0-5p0-0-7p3-0--3--0-8p7-0-3p2-0-0-5p0-0-7p3-0--8--8--8--0--|
Bb|--0-0-5p0-0-7p3-0-----0-8p7-0-3p2-0-0-5p0-0-7p3-0--8--8--8--0--|



03. Breath

Intro Guitar 1 (Ben): 00:00 (Clean)
 C|---------------------------------------------|
 G|---------------------------------------------|
Eb|---------------------------------------------|
Bb|--9-9-9-9-xx-9--9--10---9-9-9-9-xx-9--9--10--|
 F|--7-7-7-7-xx-7--7--7----7-7-7-7-xx-7--7--7---|
Bb|--7-7-7-7-xx-7--7--7----7-7-7-7-xx-7--7--7---|

Guitar 1: 00:05 (Distorted)
 C|--------------------------------------------|
 G|--------------------------------------------|
Eb|--------------------------------------------|
Bb|--10----10-10--10-10----9-----9--9---9--9---|
 F|--10----10-10--10-10----10----10-10--10-10--|
Bb|--10----10-10--10-10----9-----9--9---9--9---|

Guitar 2 (Aaron): 00:05 (Distorted)
 C|--15-------------------15-------------------|
 G|----17-15-17h18-17-------17-15-17h18-17-----|
Eb|-------------------17-------------------17--|
Bb|--------------------------------------------|
 F|--------------------------------------------|
Bb|--------------------------------------------|

Guitar 1: 00:10
 C|----------------------------------------------------------|
 G|----------------------------------------------------------|
Eb|----------------------------------------------------------|
Bb|--9999--9-9---10---9999--9-9---10---10-10--10--9--9---9---|
 F|--7777--7-7---7----7777--7-7---7----10-10--10--10-10--10--|
Bb|--7777--7-7---7----7777--7-7---7----10-10--10--9--9---9---|

Guitar 2: 00:10
 C|--19---20-19-------19---20-19-------------12--10----------|
 G|----20-------20------20-------20----13-------------12-10--|
Eb|---------------------------------------12--------12-------|
Bb|----------------------------------------------------------|
 F|----------------------------------------------------------|
Bb|----------------------------------------------------------|

Verse 1 Guitar 1: 00:21
 C|-------------------------------------------|
 G|-------------------------------------------|
Eb|-------------------------------------------|
Bb|-------------------------------------------|
 F|--7---------------------7------------------|
Bb|--7---------------------7------------------|

Verse 1 Guitar 2: 00:21 (clean)
 C|--------8----7----0-----------8----7----8--|
 G|-----10---10---10----------10---10---10----|
Eb|---9---------------------9-----------------|
Bb|-------------------------------------------|
 F|-------------------------------------------|
Bb|-------------------------------------------|

Guitar 1: 00:31
 C|---------------------------------------------|
 G|---------------------------------------------|
Eb|---------------------------------------------|
Bb|--10-----------------------------------------|
 F|--8----------------------7-------------------|
Bb|-------------------------7-------------------|

Guitar 2: 00:31
 C|------------8------------------8----7-----0--|
 G|------8--10---8-8h10--------10---10---10-----|
Eb|---10---------------------9------------------|
Bb|---------------------------------------------|
 F|---------------------------------------------|
Bb|---------------------------------------------|

Guitar 1: 00:42
 C|-------------------------------------------|
 G|-------------------------------------------|
Eb|-------------------------------------------|
Bb|-------------------------------------------|
 F|--7---------------------7------------------|
Bb|--7---------------------7------------------|

Guitar 2: 00:42
 C|--------8----7----0-----------8----7----8--|
 G|-----10---10---10----------10---10---10----|
Eb|---9---------------------9-----------------|
Bb|-------------------------------------------|
 F|-------------------------------------------|
Bb|-------------------------------------------|

Guitar 1: 00:52
 C|---------------------------------------------|
 G|---------------------------------------------|
Eb|---------------------------------------------|
Bb|--10-----------------------------------------|
 F|--8----------------------7-------------------|
Bb|-------------------------7-------------------|

Guitar 2: 00:53
 C|------------8------------------8----7-----8--|
 G|------8--10---8-8h10--------10---10---10-----|
Eb|---10---------------------9------------------|
Bb|---------------------------------------------|
 F|---------------------------------------------|
Bb|---------------------------------------------|

Pre-Chorus: 01:02 (both guitars)
 C|--------------------------------------------|
 G|-----------5555------5555------5555---------|
Eb|-------------------------222222----2---2-4--|
Bb|--xxx333333----333333----222222----2---2-4--|
 F|--xxx333333----333333----000000----0-2-0-2--|
Bb|--xxx333333----333333----------------2------|

01:13
 C|---------------------------------------------------|
 G|---------------------------------------------------|
Eb|---------------------------------------------------|
Bb|--3-3333-xxx-3-333333-10-10101010-1010101010-109---|
 F|--3-3333-xxx-3-333333-10-10101010-1010101010-1010--|
Bb|--3-3333-xxx-3-333333-10-10101010-1010101010-109---|
                         ^----Acoustic Srumming----^
Guitar 2 during strumming: 01:19
 C|---------------------------------------------------|
 G|----------------------8888888888-5-5\888888888888--|
Eb|---------------------------------------------------|
Bb|---------------------------------------------------|
 F|---------------------------------------------------|
Bb|---------------------------------------------------|

Chorus Guitar 1: 01:24
 C|-----------------------------------------|
 G|-----------------------------------------|
Eb|-----------------------------------------|
Bb|--xxx7-777--7-777-7--2-3-33-3-33-5-5--5--|
 F|--xxx7-777--7-777-7--2-3-33-3-33-5-5--5--|
Bb|--xxx7-777--7-777-7--2-3-33-3-33-5-5--5--|

Chorus Guitar 2: 01:24 (distorted)
 C|-----------------------------------------------7777--|
 G|--10101010101010101010-88-10101010101010101010-------|
Eb|-----------------------------------------------------|
Bb|-----------------------------------------------------|
 F|-----------------------------------------------------|
Bb|-----------------------------------------------------|

 C|--8888888888-77-888888888888-10101010101010101010-10--|
 G|------------------------------------------------------|
Eb|------------------------------------------------------|
Bb|------------------------------------------------------|
 F|------------------------------------------------------|
Bb|------------------------------------------------------|

Back to verse Guitar 1: 01:39
 C|---------------------|
 G|---------------------|
Eb|---------------------|
Bb|---------------------|
 F|--7------------------|
Bb|--7------------------|

Guitar 2: 01:40 (clean)
 C|--------8----7----0--|
 G|-----10---10---10----|
Eb|---9-----------------|
Bb|---------------------|
 F|---------------------|
Bb|---------------------|

Verse 2 Guitar 1: 01:45
 C|-------------------------------------------|
 G|-------------------------------------------|
Eb|-------------------------------------------|
Bb|-------------------------------------------|
 F|--7---------------------7------------------|
Bb|--7---------------------7------------------|

Verse 2 Guitar 2: 01:45
 C|--------8----7----0-----------8----7----8--|
 G|-----10---10---10----------10---10---10----|
Eb|---9---------------------9-----------------|
Bb|-------------------------------------------|
 F|-------------------------------------------|
Bb|-------------------------------------------|

Guitar 1: 01:55
 C|---------------------------------------------|
 G|---------------------------------------------|
Eb|---------------------------------------------|
Bb|--10-----------------------------------------|
 F|--8----------------------7-------------------|
Bb|-------------------------7-------------------|

Guitar 2: 01:55
 C|------------8------------------8----7-----8--|
 G|------8--10---8-8h10--------10---10---10-----|
Eb|---10---------------------9------------------|
Bb|---------------------------------------------|
 F|---------------------------------------------|
Bb|---------------------------------------------|

Pre-Chorus: 02:05
 C|--------------------------------------------|
 G|-----------5555------5555------5555---------|
Eb|-------------------------222222----2---2-4--|
Bb|--xxx333333----333333----222222----2---2-4--|
 F|--xxx333333----333333----000000----0-2-0-2--|
Bb|--xxx333333----333333----------------2------|

02:16
 C|-----------------------|
 G|-----------------------|
Eb|-----------------------|
Bb|--3-3333-xxx-3-333333--|
 F|--3-3333-xxx-3-333333--|
Bb|--3-3333-xxx-3-333333--|

Per-Chorus/Chorus Guitar 1: 02:21
 C|-----------------------------|
 G|-----------------------------|
Eb|-----------------------------|
Bb|--10--xx1010--10--xx1010-9---|
 F|--10--xx1010--10--xx1010-10--|
Bb|--10--xx1010--10--xx1010-9---|

Guitar 2 during pre-chorus: 02:22 (distorted)
 C|-------------------------------|
 G|--8888888888-5-5\888888888888--|
Eb|-------------------------------|
Bb|-------------------------------|
 F|-------------------------------|
Bb|-------------------------------|

Chorus Guitar 1: 02:26
 C|---------------------------------------------|
 G|---------------------------------------------|
Eb|---------------------------------------------|
Bb|--7xx-777--7xx-777-7--2-3-33-3-33-5-5--5555--|
 F|--7xx-777--7xx-777-7--2-3-33-3-33-5-5--5555--|
Bb|--7xx-777--7xx-777-7--2-3-33-3-33-5-5--5555--|

Chorus Guitar 2: 02:27
 C|-----------------------------------------------7777--|
 G|--10101010101010101010-88-10101010101010101010-------|
Eb|-----------------------------------------------------|
Bb|-----------------------------------------------------|
 F|-----------------------------------------------------|
Bb|-----------------------------------------------------|

 C|--8888888888-77-888888888888-1010101010101010-8-8h10-10--|
 G|---------------------------------------------------------|
Eb|---------------------------------------------------------|
Bb|---------------------------------------------------------|
 F|---------------------------------------------------------|
Bb|---------------------------------------------------------|

Guitar 1: 02:42
 C|------------------------------------------------------|
 G|------------------------------------------------------|
Eb|------------------------------------------------------|
Bb|--7-xxx7-7--xxxxx3-xxx3-3--xxxxx5-xxx5-5--xxxxx3-333--|
 F|--7-xxx7-7--xxxxx3-xxx3-3--xxxxx5-xxx5-5--xxxxx3-333--|
Bb|--7-xxx7-7--xxxxx3-xxx3-3--xxxxx5-xxx5-5--xxxxx3-333--|

Guitar 2: 02:42
 C|--------------------------------------------------------------|
 G|--10-1010-1010------------------------------------------------|
Eb|---------------9-99-9-10-1010-1010-10-9-99-9--7-77-77-9-99-9--|
Bb|--------------------------------------------------------------|
 F|--------------------------------------------------------------|
Bb|--------------------------------------------------------------|

 C|--------------------------------------------11/12-10-----|
 G|---------------------0-------------------------------12--|
Eb|--10-1010-9--5---5-------7-------------------------------|
Bb|---------------7---7---7---7-7----7----7-----------------|
 F|---------------------------------------------------------|
Bb|---------------------------------------------------------|

Guitar 1: 02:53
 C|------------------------------------------|
 G|------------------------------------------|
Eb|-----------------------55555555-44444444--|
Bb|--77777--33333--55555--55555555-55555555--|
 F|--77777--33333--55555--33333333-22222222--|
Bb|--77777--33333--55555---------------------|
                          pmpmpmpm pmpmpmpm

Chorus Guitar 1: 03:04
 C|-----------------------------------------------------------|
 G|-----------------------------------------------------------|
Eb|-----------------------------------------------------------|
Bb|--10-10101010-1010-9---7-777-77-7--2--3-333-33--5-555-555--|
 F|--10-10101010-1010-10--7-777-77-7--2--3-333-33--5-555-555--|
Bb|--10-10101010-1010-9---7-777-77-7--2--3-333-33--5-555-555--|

Chorus Guitar 2: 03:04
 C|-----------------------------------------------------|
 G|--13--13-15-13-12--13--13-15-13-12--13--13-15-13-12--|
Eb|----12---------------12---------------12-------------|
Bb|-----------------------------------------------------|
 F|-----------------------------------------------------|
Bb|-----------------------------------------------------|

 C|---------------------------------------------------------|
 G|--13--13-15-13-15--17-15-17-18-17-15--17-15-17-18-17-15--|
Eb|----12---------------------------------------------------|
Bb|---------------------------------------------------------|
 F|---------------------------------------------------------|
Bb|---------------------------------------------------------|

 C|------------------------------|
 G|--13--13-15-13-12--13--13-12--|
Eb|----12---------------12-------|
Bb|------------------------------|
 F|------------------------------|
Bb|------------------------------|

Outro Guitar 1: 03:24
 C|---------------------|
 G|---------------------|
Eb|---------------------|
Bb|--7------------------|
 F|--7------------------|
Bb|--7------------------|

Guitar 2: 03:25 (clean)
 C|--------8----7----0--|
 G|-----10---10---10----|
Eb|---9-----------------|
Bb|---------------------|
 F|---------------------|
Bb|---------------------|



04. You

Intro Guitar 1 Clean (Aaron) *play once*
e|----------------------------------------------------------------|
B|------7----7--------7----7---------7-----7---------7-----7------|
G|----------------------------------------------------------------|
D|----9----9----9---9----9----9----9-----9-----9---9-----9-----9--|
A|--7----7----7---7----7----7-------------------------------------|
E|-------------------------------8-----8-----8---8-----8-----8----|

Verse 1 Guitar 1 Clean (Aaron) *play 3 times*
e|----------------------------------------------------------------|
B|------7----7--------7----7---------7-----7---------7-----7------|
G|----------------------------------------------------------------|
D|----9----9----9---9----9----9----9-----9-----9---9-----9-----9--|
A|--7----7----7---7----7----7-------------------------------------|
E|-------------------------------8-----8-----8---8-----8-----8----|

Verse 1 Guitar 1 Cont. Clean *play once*
e|----------------------------------------------------------------|
B|------7----7--------7----7---------7-----7----------------------|
G|----------------------------------------------------------------|
D|----9----9----9---9----9----9----9-----9-----9------------------|
A|--7----7----7---7----7----7-------------------------------------|
E|-------------------------------8-----8-----8---8-8-8-8-8-8-8-8--|

Chorus 1 Guitar 1 Distorted (Aaron)
e|--------------------------------------|
B|--6666666666666666--55555555--333333--|
G|--------------------------------------|
D|--------------------------------------|
A|--------------------------------------|
E|--------------------------------------|

Chorus 1 Guitar 2 Distorted (Ben)
e|--------------------------------------|
B|--------------------------------------|
G|--------------------5-555-55----------|
D|--3-333-33-33-3333--5-555-55--5-5-x5--|
A|--3-333-33-33-3333--3-333-33--5-5-x5--|
E|--1-111-11-11-1111--3-333-33--3-3-x3--|

Guitar 1 Cont.
e|--------------------------------------|
B|--6666666666666666--55555555--333333--|
G|--------------------------------------|
D|--------------------------------------|
A|--------------------------------------|
E|--------------------------------------|

Guitar 2 Cont.
e|--------------------------------------|
B|--------------------------------------|
G|--------------------5-555-55----------|
D|--3-333-33-33-3333--5-555-55--55-555--|
A|--3-333-33-33-3333--3-333-33--55-555--|
E|--1-111-11-11-1111--3-333-33--33-333--|

Guitar 1 Cont.
e|--5555555555555555p3----------------------4----|
B|--------------------55555555--333333--6---6----|
G|------------------------------------------5----|
D|------------------------------------------3----|
A|------------------------------------------3----|
E|-----------------------------------------------|

Guitar 2 Cont.
e|-----------------------------------------------|
B|-----------------------------------------(9)---|
G|--------------------5-555-55-------------(10)--|
D|--3-333-33-33-3333--5-555-55--55-555--3--(10)--|
A|--3-333-33-33-3333--3-333-33--55-555--3--(8)---|
E|--1-111-11-11-1111--3-333-33--33-333—-1--(8)---|

Chorus 2 Guitar 1 Distorted with effects (Aaron)
e|----------------------------------------------------------------------|
B|--17171717--------17171717-----------------17171717-19191919----------|
G|----------16161616--------16161616-17171717-----------------17171717--|
D|----------------------------------------------------------------------|
A|----------------------------------------------------------------------|
E|----------------------------------------------------------------------|

Chorus 2 Guitar 2 Distorted (Ben)
e|----------------------------------------------------------------------|
B|----------------------------------------------------------------------|
G|--9-9-9-9-9-9-9-9-9-9-9-9-9-9-9-9--5-5-5-5-5-5-5-5--5-5-5-5-5-5-5-5---|
D|--9-9-9-9-9-9-9-9-9-9-9-9-9-9-9-9--5-5-5-5-5-5-5-5--5-5-5-5-5-5-5-5---|
A|--7-7-7-7-7-7-7-7-7-7-7-7-7-7-7-7--3-3-3-3-3-3-3-3--3-3-3-3-3-3-3-3---|
E|--7-7-7-7-7-7-7-7-7-7-7-7-7-7-7-7--3-3-3-3-3-3-3-3--3-3-3-3-3-3-3-3---|

Guitar 1 Cont.
e|-------------------------------------------------------------------------|
B|--17171717--------17171717-----------------17171717-19191919---------17--|
G|----------16161616--------17171717-16161616-----------------19191919-----|
D|-------------------------------------------------------------------------|
A|-------------------------------------------------------------------------|
E|-------------------------------------------------------------------------|
                                     Let ring into verse 2-------------^ 
Guitar 2 Cont.
e|-------------------------------------------------------------------------|
B|-------------------------------------------------------------------------|
G|--9-9-9-9-9-9-9-9-9-9-9-9-9-9-9-9--5-5-5-5-5-5-5-5--5-5-5-5-5-5-5-5------|
D|--9-9-9-9-9-9-9-9-9-9-9-9-9-9-9-9--5-5-5-5-5-5-5-5--5-5-5-5-5-5-5-5------|
A|--7-7-7-7-7-7-7-7-7-7-7-7-7-7-7-7--3-3-3-3-3-3-3-3--3-3-3-3-3-3-3-3------|
E|--7-7-7-7-7-7-7-7-7-7-7-7-7-7-7-7--3-3-3-3-3-3-3-3--3-3-3-3-3-3-3-3------|

Verse 2 Guitar 2 Distorted (Ben)
e|------------------------------------------------------------------|
B|------7----7---------7----7----------7-----7---------7-----7------|
G|------------------------------------------------------------------|
D|----9----9-----9---9----9-----9----9-----9-----9---9-----9-----9--|
A|--7----7-----7---7----7-----7-------------------------------------|
E|---------------------------------8-----8-----8---8-----8-----8----|
   pmpm  pmpm  pm  pmpm pmpm  pm   pmpm  pmpm  pm  pmpm  pmpm  pm 

Guitar 2 Cont.
e|-----------------------------------------------------------------|
B|------7----7---------7----7----------7-----7---------7----7h8-7--|
G|-----------------------------------------------------------------|
D|----9----9-----9---9----9-----9----9-----9-----9---9----9--------|
A|--7----7-----7---7----7-----7------------------------------------|
E|---------------------------------8-----8-----8---8---------------|
   pmpm  pmpm  pm  pmpm pmpm  pm   pmpm  pmpm  pm  pmpm   pm

Guitar 2 Cont.
e|-----------------------------------------------------------------|
B|------7----7---------7----7----------7-----7---------7-----7-----|
G|-----------------------------------------------------------------|
D|----9----9-----9---9----9-----9----9-----9-----9---9-----9----9--|
A|--7----7-----7---7----7-----7------------------------------------|
E|---------------------------------8-----8-----8---8-----8----8----|
    pmpm  pmpm pm  pmpm pmpm  pm   pmpm  pmpm  pm  pmpm  pmpm pm 

Verse 2 Guitar 2 Cont. *play once*
e|-----------------------------------------------------------------|
B|------7----7---------7----7---------7----7-----------------------|
G|-----------------------------------------------------------------|
D|----9----9-----9---9----9-----9---9----9-----9-------------------|
A|--7----7-----7---7----7-----7------------------------------------|
E|--------------------------------8----8-----8----8-8-8-8-8-8-8-8--|
   pmpm  pmpm  pm  pmpm pmpm pm   pmpm  pmpm  pm

Chorus 3 Guitar 1 Distorted (Aaron)
e|--5555555555555555--33333333--777777--|
B|--------------------------------------|
G|--------------------------------------|
D|--------------------------------------|
A|--------------------------------------|
E|--------------------------------------|

Chorus 3 Guitar 2 Distorted (Ben)
e|--------------------------------------|
B|--------------------------------------|
G|--------------------5-555-55----------|
D|--3-333-33-33-3333--5-555-55--5-5-x5--|
A|--3-333-33-33-3333--3-333-33--5-5-x5--|
E|--1-111-11-11-1111--3-333-33--3-3-x3--|

Guitar 3 Cont.
e|--555555555555p333--88888888--777777--|
B|--------------------------------------|
G|--------------------------------------|
D|--------------------------------------|
A|--------------------------------------|
E|--------------------------------------|

Guitar 3 Cont.
e|--------------------------------------|
B|--------------------------------------|
G|--------------------5-555-55----------|
D|--3-333-33-33-3333--5-555-55--55-555--|
A|--3-333-33-33-3333--3-333-33--55-555--|
E|--1-111-11-11-1111--3-333-33--33-333--|

Guitar 3 Cont.
e|--8888888888888888—-12121212121212/13-1010101010101010--8--------|
B|------------------------------------------------------------9----|
G|------------------------------------------------------------10---|
D|------------------------------------------------------------10---|
A|------------------------------------------------------------8----|
E|------------------------------------------------------------8----|

Guitar 3 Cont.
e|-----------------------------------------------------------------|
B|-----------------------------------------------------------(9)---|
G|---------------------5---5-5-5---5-5-----------------------(10)--|
D|--3-333-33-33-3333---5---5-5-5---5-5---5--5---5--5---5--3--(10)--|
A|--3-333-33-33-3333---3---3-3-3---3-3---5--5---5--5---5--3--(8)---|
E|--1-111-11-11-1111---3---3-3-3---3-3---3--3---3--3---3--1--(8)---|

Chorus 4 Guitar 1 Distorted with effects (Aaron)
e|-----------------------------------------------1919----------------------|
B|---------------------------------------------------1919------------------|
G|-------------------------------------------------------1919191919191919--|
D|-------------------------------------------------------------------------|
A|-------------------------------------------------------------------------|
E|-------------------------------------------------------------------------|

Chorus 4 Guitar 2 Distorted (Ben)
e|-------------------------------------------------------------------------|
B|-------------------------------------------------------------------------|
G|-------------------------------------------------------------------------|
D|--9--------------5--------------9--------------5-------------------------|
A|--7777777777777773333333333333337777777777777773-3333333-3-3-3--3--------|
E|--7--------------3--------------7--------------3-------------------------|

Chorus 2 Guitar 1 Distorted with effects (Aaron)
e|----------------------------------------------------------------------|
B|--17171717--------17171717-----------------17171717-19191919----------|
G|----------16161616--------16161616-17171717-----------------17171717--|
D|----------------------------------------------------------------------|
A|----------------------------------------------------------------------|
E|----------------------------------------------------------------------|

Chorus 2 Guitar 2 Distorted (Ben)
e|----------------------------------------------------------------------|
B|----------------------------------------------------------------------|
G|--9-9-9-9-9-9-9-9-9-9-9-9-9-9-9-9--5-5-5-5-5-5-5-5--5-5-5-5-5-5-5-5---|
D|--9-9-9-9-9-9-9-9-9-9-9-9-9-9-9-9--5-5-5-5-5-5-5-5--5-5-5-5-5-5-5-5---|
A|--7-7-7-7-7-7-7-7-7-7-7-7-7-7-7-7--3-3-3-3-3-3-3-3--3-3-3-3-3-3-3-3---|
E|--7-7-7-7-7-7-7-7-7-7-7-7-7-7-7-7--3-3-3-3-3-3-3-3--3-3-3-3-3-3-3-3---|

Guitar 1 Cont.
e|----------------------------------------------------------------------|
B|--17171717--------17171717-----------------17171717-19191919----------|
G|----------16161616--------17171717-16161616-----------------19191919--|
D|----------------------------------------------------------------------|
A|----------------------------------------------------------------------|
E|----------------------------------------------------------------------|

Guitar 2 Cont.
e|----------------------------------------------------------------------|
B|----------------------------------------------------------------------|
G|--9-9-9-9-9-9-9-9-9-9-9-9-9-9-9-9--5-5-5-5-5-5-5-5--5-5-5-5-5-5-5-5---|
D|--9-9-9-9-9-9-9-9-9-9-9-9-9-9-9-9--5-5-5-5-5-5-5-5--5-5-5-5-5-5-5-5---|
A|--7-7-7-7-7-7-7-7-7-7-7-7-7-7-7-7--3-3-3-3-3-3-3-3--3-3-3-3-3-3-3-3---|
E|--7-7-7-7-7-7-7-7-7-7-7-7-7-7-7-7--3-3-3-3-3-3-3-3--3-3-3-3-3-3-3-3---|

Guitar 1 Cont.
e|----------------------------------------------------------------------|
B|--17171717--------17171717-----------------17171717-19191919----------|
G|----------16161616--------16161616-17171717-----------------17171717--|
D|----------------------------------------------------------------------|
A|----------------------------------------------------------------------|
E|----------------------------------------------------------------------|

Guitar 2 Cont.
e|----------------------------------------------------------------------|
B|----------------------------------------------------------------------|
G|--9-9-9-9-9-9-9-9-9-9-9-9-9-9-9-9--5-5-5-5-5-5-5-5--5-5-5-5-5-5-5-5---|
D|--9-9-9-9-9-9-9-9-9-9-9-9-9-9-9-9--5-5-5-5-5-5-5-5--5-5-5-5-5-5-5-5---|
A|--7-7-7-7-7-7-7-7-7-7-7-7-7-7-7-7--3-3-3-3-3-3-3-3--3-3-3-3-3-3-3-3---|
E|--7-7-7-7-7-7-7-7-7-7-7-7-7-7-7-7--3-3-3-3-3-3-3-3--3-3-3-3-3-3-3-3---|

Guitar 1 Cont.
e|--------------------------------------|
B|--17171717--------17171717--17-19-20--|
G|----------16161616--------16----------|
D|--------------------------------------|
A|--------------------------------------|
E|--------------------------------------|

Guitar 2 Cont.
e|--------------------------------------|
B|--------------------------------------|
G|--9-9-9-9-9-9-9-9-9-9-9-9-9-9-9-9--5--|
D|--9-9-9-9-9-9-9-9-9-9-9-9-9-9-9-9--5--|
A|--7-7-7-7-7-7-7-7-7-7-7-7-7-7-7-7--3--|
E|--7-7-7-7-7-7-7-7-7-7-7-7-7-7-7-7--3--|



05. Evil Angel

Intro Guitars 1 and 2 *play 2 times* 00:04/00:12
 C|----------------------------------------|
 G|------------------------------7*--------|
Eb|---------------------------------5*-3*--|
Bb|--0h2-2-x-5p2-0h2-3p2-0h2-2-x-----------|
 F|--0h2-2-x-5p2-0h2-3p2-0h2-2-x-----------|
Bb|--0h2-2-x-5p2-0h2-3p2-0h2-2-x-----------|

Intro continued 00:08/00:16
 C|-----------------------------------12*--|
 G|------------------------------7*--------|
Eb|---------------------------------7*-----|
Bb|--0h2-2-x-5p2-0h2-3p2-0h2-2-x-----------|
 F|--0h2-2-x-5p2-0h2-3p2-0h2-2-x-----------|
Bb|--0h2-2-x-5p2-0h2-3p2-0h2-2-x-----------|

Verse 1 Guitar 1 (Ben) 00:21 clean
 C|------------------------------------------------------------|
 G|--12----13---12-10----10----12----13-----12---10----10------|
Eb|--12----12---12-11----11----12----12-----12---11----11------|
Bb|--10----10---10-12----12----10----10-----10---12----12------|
 F|------------------------------------------------------------|
Bb|------------------------------------------------------------|

Verse 1 Guitar 2 (Aaron) 00:21 Clean
 C|---------------------------------------------------------0--|
 G|------3-----3-------3-----3-----3-----3----3------3-----3---|
Eb|------------------------------------------------------------|
Bb|----2-----2-------4-----4-----2-----2-----------4-----4-----|
 F|--3-----3-------5-----5-----3-----3------3----5-----5-------|
Bb|------------------------------------------------------------|

Verse 1 Guitar 1 (Ben) 00:37 Clean
 C|-----------------------------------------------------------|
 G|------10------------10------------10------------10---------|
Eb|----12----12p11---12----12p11---11----12p11---11----12p11--|
Bb|--10----10------10----10------12----12------12----12-------|
 F|-----------------------------------------------------------|
Bb|-----------------------------------------------------------|

Verse 1 Guitar 2 (Aaron) 00:37 Clean
 C|-----------------------------------------------------------|
 G|------3-------------3-------------3-------------3----------|
Eb|-----------------------------------------------------------|
Bb|----2-------------2-------------4-------------4------------|
 F|--3-------------3-------------5-------------5--------------|
Bb|-----------------------------------------------------------|

Verse 1 Guitar 1 (Ben) 00:46 continued
 C|-----------------------------------------------------------|
 G|------10------------10------------10------------10---------|
Eb|----12----12p11---12----12p11---11----12p11---11----12p11--|
Bb|--10----10------10----10------12----12------12----12-------|
 F|-----------------------------------------------------------|
Bb|-----------------------------------------------------------|

Verse 1 Guitar 2 (Aaron) 00:46 Continued
 C|---------------------------------------------------0-------|
 G|------3-------------3------3------3-------------3----------|
Eb|-----------------------------------------------------------|
Bb|----2-------------2-------------4-------------4------------|
 F|--3-------------3------3------5-------------5--------------|
Bb|-----------------------------------------------------------|

Chorus Guitar 1 *play 2 times* 00:54/01:03
 C|-------------------------------------------------------------|
 G|-------------------------------------------------------------|
Eb|-------------------------------------------------------------|
Bb|--2--2-2-2-2---0--0-0-0-0---10--1010101010----5----5--0---0--|
 F|--2--2-2-2-2---0--0-0-0-0---10--1010101010----5----5--0---0--|
Bb|--2--2-2-2-2---0--0-0-0-0---10--1010101010----5----5--0---0--|

Chorus Guitar 2 *play 2 times* 00:54/01:03
 C|--8--88--777---8-88---777---10--10-10-10-10--------7---------|
 G|--8--88--888---8-88---888---8---8--8--8--8----8-10---10-8-7--|
Eb|-------------------------------------------------------------|
Bb|-------------------------------------------------------------|
 F|-------------------------------------------------------------|
Bb|-------------------------------------------------------------|

After Chorus Guitars and 1 and 2 01:11
 C|----------------------------------------|
 G|------------------------------7*--------|
Eb|---------------------------------5*-3*--|
Bb|--0h2-2-x-5p2-0h2-3p2-0h2-2-x-----------|
 F|--0h2-2-x-5p2-0h2-3p2-0h2-2-x-----------|
Bb|--0h2-2-x-5p2-0h2-3p2-0h2-2-x-----------|

Continued 01:15
 C|-----------------------------------12*--|
 G|------------------------------7*--------|
Eb|---------------------------------7*-----|
Bb|--0h2-2-x-5p2-0h2-3p2-0h2-2-x-----------|
 F|--0h2-2-x-5p2-0h2-3p2-0h2-2-x-----------|
Bb|--0h2-2-x-5p2-0h2-3p2-0h2-2-x-----------|

Verse 2 Guitar 1 (Ben) 01:19 clean
 C|------------------------------------------------------------|
 G|--12----13---12-10----10----12----13-----12---10----10------|
Eb|--12----12---12-11----11----12----12-----12---11----11------|
Bb|--10----10---10-12----12----10----10-----10---12----12------|
 F|------------------------------------------------------------|
Bb|------------------------------------------------------------|

Verse 2 Guitar 2 (Aaron) 01:19 Clean
 C|---------------------------------------------------------0--|
 G|------3-----3-------3-----3-----3-----3----3------3-----3---|
Eb|------------------------------------------------------------|
Bb|----2-----2-------4-----4-----2-----2-----------4-----4-----|
 F|--3-----3-------5-----5-----3-----3------3----5-----5-------|
Bb|------------------------------------------------------------|

Verse 2 Guitar 1 (Ben) 01:28 Clean
 C|-----------------------------------------------------------|
 G|------10------------10------------10------------10---------|
Eb|----12----12p11---12----12p11---11----12p11---11----12p11--|
Bb|--10----10------10----10------12----12------12----12-------|
 F|-----------------------------------------------------------|
Bb|-----------------------------------------------------------|

Verse 2 Guitar 2 (Aaron) 01:28 Clean
 C|-----------------------------------------------------------|
 G|------3-------------3-------------3-------------3----------|
Eb|-----------------------------------------------------------|
Bb|----2-------------2-------------4-------------4------------|
 F|--3-------------3-------------5-------------5--------------|
Bb|-----------------------------------------------------------|

Verse 2 Guitar 1 (Ben) 01:44 continued
 C|-----------------------------------------------------------|
 G|------10------------10------------10------------10---------|
Eb|----12----12p11---12----12p11---11----12p11---11----12p11--|
Bb|--10----10------10----10------12----12------12----12-------|
 F|-----------------------------------------------------------|
Bb|-----------------------------------------------------------|

Verse 2 Guitar 2 (Aaron) 01:44 Continued
 C|---------------------------------------------------0-------|
 G|------3-------------3------3------3-------------3----------|
Eb|-----------------------------------------------------------|
Bb|----2-------------2-------------4-------------4------------|
 F|--3-------------3------3------5-------------5--------------|
Bb|-----------------------------------------------------------|

Chorus 1 Guitar 1 *play 2 times* 01:53/02:01
 C|-------------------------------------------------------------|
 G|-------------------------------------------------------------|
Eb|-------------------------------------------------------------|
Bb|--2--2-2-2-2---0--0-0-0-0---10--1010101010----5----5--0---0--|
 F|--2--2-2-2-2---0--0-0-0-0---10--1010101010----5----5--0---0--|
Bb|--2--2-2-2-2---0--0-0-0-0---10--1010101010----5----5--0---0--|

Chorus 1 Guitar 2 *play 2 times* 01:53/02:01
 C|--8--88--777---8-88---777---10--10-10-10-10--------7---------|
 G|--8--88--888---8-88---888---8---8--8--8--8----8-10---10-8-7--|
Eb|-------------------------------------------------------------|
Bb|-------------------------------------------------------------|
 F|-------------------------------------------------------------|
Bb|-------------------------------------------------------------|

Chorus 2 Guitar 1 *play 2 times* 02:09/02:18
 C|-------------------------------------------------------------|
 G|-------------------------------------------------------------|
Eb|-------------------------------------------------------------|
Bb|--5--5-5-5-5---9--9-9-9-9---10--1010101010----5----5--0---0--|
 F|--5--5-5-5-5---9--9-9-9-9---10--1010101010----5----5--0---0--|
Bb|--5--5-5-5-5---9--9-9-9-9---10--1010101010----5----5--0---0--|

Chorus 2 Guitar 2 *play 2 times* 02:09/02:18
 C|--8--88--777---8-88---777---10--10-10-10-10--------7---------|
 G|--8--88--888---8-88---888---8---8--8--8--8----8-10---10-8-7--|
Eb|-------------------------------------------------------------|
Bb|-------------------------------------------------------------|
 F|-------------------------------------------------------------|
Bb|-------------------------------------------------------------|

Bridge Guitars 1 and 2 02:26
 C|-------------------------------------------------------------|
 G|-------------------------------------------------------------|
Eb|-------------------------------------------------------------|
Bb|--x-22--x-22--x-22-------------x-00--x-00--x-33--------------|
 F|--x-22--x-22--x-22-0-2-5-2-0-3-x-00--x-00--x-33-0-2-5-2-0-3--|
Bb|--x-22--x-22--x-22-0-2-5-2-0-3-x-00--x-00--x-33-0-2-5-2-0-3--|

Bridge Guitar 1 Solo 02:35
 C|---0--0--0--0--0--0--0--0--0--0--0--0--0--0--0--0--|
 G|--11-11-11-11-11-11-11-11-11-11-11-11-11-11-11-11--|
Eb|---------------------------------------------------|
Bb|---------------------------------------------------|
 F|---------------------------------------------------|
Bb|---------------------------------------------------|
                  ^--Gradual bend  ^--Gradually release bend

Bridge Guitar 2 02:35
 C|---------------------------------------------------|
 G|---------------------------------------------------|
Eb|---------------------------------------------------|
Bb|--x--2-2----x--2-2----x--2-2-----------------------|
 F|--x--2-2----x--2-2----x--2-2----0h2----5p2----0h3--|
Bb|--x--2-2----x--2-2----x--2-2----0h2----5p2----0h3--|

Guitar 1 Solo cont. 02:39
 C|---0--0--0--0--0--0--0--0--0--0--0--0--0--0--0--0--|
 G|--11-11-11-11-11-11-11-11-11-11-11-11-11-11-11-11--|
Eb|---------------------------------------------------|
Bb|---------------------------------------------------|
 F|---------------------------------------------------|
Bb|---------------------------------------------------|
                  ^--Gradual bend  ^--Gradually release bend

Bridge Guitar 2 02:39
 C|---------------------------------------------------|
 G|---------------------------------------------------|
Eb|---------------------------------------------------|
Bb|--x--0-0----x--0-0----x--3-3-----------------------|
 F|--x--0-0----x--0-0----x--3-3----0h2----5p2----0h3--|
Bb|--x--0-0----x--0-0----x--3-3----0h2----5p2----0h3--|

Guitar 1 solo cont. 02:43
 C|--0-0-0--0-0--0--0--0--0--0--0--0--0--0-0-0-0-0-0-------------|
 G|--8-7-8-10-8-10-12-10-12-13-12-10-12-10-8-7-8-7-5-555555555---|
Eb|--------------------------------------------------------------|
Bb|--------------------------------------------------------------|
 F|--------------------------------------------------------------|
Bb|--------------------------------------------------------------|
                                                     ^--Gradual bend

Bridge Guitar 2 02:43
 C|--------------------------------------------------------------|
 G|--------------------------------------------------------------|
Eb|--------------------------------------------------------------|
Bb|--x22--x22--x22-----------------x00--x00--x33-----------------|
 F|--x22--x22--x22--0h2--5p2--0h3--x00--x00--x33--0h2--5p2--0h3--|
Bb|--x22--x22--x22--0h2--5p2--0h3--x00--x00--x33--0h2--5p2--0h3--|

Bridge Guitar 1 02:51 Clean
 C|------------------------------------|
 G|------------------------------------|
Eb|------------------------------------|
Bb|------12----12-14------12----12-14--|
 F|----10--10-----------10--10---------|
Bb|--10------10-------10------10-------|

Chorus 3 Guitar 1 *play 2 times* 02:56/03:04
 C|-----------------------------------------------------------|
 G|-----------------------------------------------------------|
Eb|-----------------------------------------------------------|
Bb|--22--2-2222---00--0--0000---10-1010101010--5----5--0---0--|
 F|--22--2-2222---00--0--0000---10-1010101010--5----5--0---0--|
Bb|--22--2-2222---00--0--0000---10-1010101010--5----5--0---0--|

Chorus 3 Guitar 2 *play 2 times* 02:56/03:04
 C|--------777----------777-----10-1010101010-------7---------|
 G|---8-8---888----8-8---888----8--8-8-8-8-8---8-10---10-8-7--|
Eb|--9---9--------7---7---------------------------------------|
Bb|-----------------------------------------------------------|
 F|-----------------------------------------------------------|
Bb|-----------------------------------------------------------|

Chorus 2 Guitar 1 *play 2 times* 03:13/03:21
 C|-------------------------------------------------------------|
 G|-------------------------------------------------------------|
Eb|-------------------------------------------------------------|
Bb|--5--5-5-5-5---9--9-9-9-9---10--1010101010----5----5--0---0--|
 F|--5--5-5-5-5---9--9-9-9-9---10--1010101010----5----5--0---0--|
Bb|--5--5-5-5-5---9--9-9-9-9---10--1010101010----5----5--0---0--|

Chorus 2 Guitar 2 *play 2 times* 03:13/03:21
 C|--8--88--777---8-88---777---10--10-10-10-10--------7---------|
 G|--8--88--888---8-88---888---8---8--8--8--8----8-10---10-8-7--|
Eb|-------------------------------------------------------------|
Bb|-------------------------------------------------------------|
 F|-------------------------------------------------------------|
Bb|-------------------------------------------------------------|

Outro Guitars 1 and 2 03:29
 C|-----------------------------------------------|
 G|-----------------------------------------------|
Eb|-----------------------------------------------|
Bb|--x-22--x-22--x-22--x-22--x-22--x-22--x-22--2--|
 F|--x-22--x-22--x-22--x-22--x-22--x-22--x-22--2--|
Bb|--x-22--x-22--x-22--x-22--x-22--x-22--x-22--2--|



06. Until The End

Intro Guitar 1 (Aaron):
 C|-----------------------------------------------------------------|
 G|--666666--555555--333333-----------------------------------------|
Eb|--------------------------222222--333333--5--3--5--222222222222--|
Bb|-----------------------------------------------------------------|
 F|-----------------------------------------------------------------|
Bb|-----------------------------------------------------------------|

Guitar 1 Cont.
 C|-----------------------------------------------------------------|
 G|--666666--555555--333333---------------------------333333333333--|
Eb|--------------------------222222--333333--5--3--5----------------|
Bb|-----------------------------------------------------------------|
 F|-----------------------------------------------------------------|
Bb|-----------------------------------------------------------------|

Intro Guitar 2 (Ben):
 C|-----------------------------------------------------------------|
 G|-----------------------------------------------------------------|
Eb|-----------------------------------------------------------------|
Bb|--0-------0--0-----0------0322----0-------0--0----0---------0h1--|
 F|--0-------0--0-----0------0322----0-------0--0----0---------0h1--|
Bb|--0-------0--0-----0------0322----0-------0--0----0---------0h1--|
                             pmpm                     

Guitar 1:
 C|--------------------------------------------------------------------|
 G|--666666--555555--333333--------------------------------------------|
Eb|--------------------------222222--333333--5--3--5--222222222222-----|
Bb|--------------------------------------------------------------------|
 F|--------------------------------------------------------------------|
Bb|--------------------------------------------------------------------|

Guitar 2:
 C|--------------------------------------------------------------------|
 G|--------------------------------------------------------------------|
Eb|--------------------------------------------------------------------|
Bb|--0-0--0--0-0-0h3-0-0--0--320320-0-0--0--0-0--0--0-0--0-------------|
 F|--0-0--0--0-0-0h3-0-0--0--320320-0-0--0--0-0--0--0-0--0--3h5-3h666--|
Bb|--0-0--0--0-0-0h3-0-0--0--320320-0-0--0--0-0--0--0-0--0-------------|
                  pm         pmpmpm    

Guitar 1:
 C|--------------------------------------------------------------------|
 G|--666666--555555--333333---------------------------3333333-3h5h6p3--|
Eb|--------------------------222222--333333--5--3--5-------------------|
Bb|--------------------------------------------------------------------|
 F|--------------------------------------------------------------------|
Bb|--------------------------------------------------------------------|

Guitar 2:
 C|--------------------------------------------------------------------|
 G|--------------------------------------------------------------------|
Eb|--------------------------------------------------------------------|
Bb|--0-0--0--0-0-0h3-0-0--0--320320-0-0--0--0-0--0--0-0--0-0-00h2h3-0--|
 F|--0-0--0--0-0-0h3-0-0--0--320320-0-0--0--0-0--0--0-0--0-0-----------|
Bb|--0-0--0--0-0-0h3-0-0--0--320320-0-0--0--0-0--0--0-0--0-0-----------|
                  pm         pmpmpm    

Verse 1 Guitar 1 (Aaron):
 C|------5-------8----5--------------5-------8----5--------|
 G|--6h8---5-----6-------8--6----6h8---5-----6-------8--6--|
Eb|----------(5)-7-----------------------(5)-7-------------|
Bb|--------------------------------------------------------|
 F|--------------------------------------------------------|
Bb|--------------------------------------------------------|

Verse 1 Guitar 2 (Ben): Strum
 C|--------------------------------------------------------|
 G|--------------------------------------------------------|
Eb|--------2-----3----5--3--2----------2-----3----5--3--2--|
Bb|--------2-----3----5--3--0----------2-----3----5--3--0--|
 F|--------0-----1----3--1--0----------0-----1----3--1--0--|
Bb|-------------------------0---------------------------0--|

Verse 1 Guitar 1:
 C|------5-------8----5--------------5-------8----5----------|
 G|--6h8---5-----6-------8--6----6h8---5-----6-------8-------|
Eb|----------(5)-7-----------------------(5)-7---------------|
Bb|----------------------------------------------------------|
 F|----------------------------------------------------------|
Bb|----------------------------------------------------------|

Verse 1 Guitar 2: Strum
 C|----------------------------------------------------------|
 G|----------------------------------------------------------|
Eb|--------2-----3----5--3--2----------2-----3-------55--33--|
Bb|--------2-----3----5--3--0----------2-----3----xxx55--33--|
 F|--------0-----1----3--1--0----------0-----1----xxx33--11--|
Bb|-------------------------0---------------------xxx--------|

Chorus 1 Guitar 2 (Ben):
 C|--------------------------------------------------|
 G|--------------------------------------------------|
Eb|------------5----5----5--5----2--3---3--5----3----|
Bb|--3----3-3--5----3----3--3----2--3---3--5----3----|
 F|--3----3-3--3----5----5--5----0--1---1--3----1----|
Bb|--3----3-3------(0)-------------------------------|x2

Chorus 1 Guitar 1 (Aaron):
 C|--------------------------------------------8-----|
 G|-----8--------------8--------------8----10----10--|
Eb|-------10-------------10-------------10-----------|
Bb|--10------8-7-8-10-------8-7-8-10-----------------|
 F|--------------------------------------------------|
Bb|--------------------------------------------------|

Guitar 1 Cont.
 C|--------------------------------------------------|
 G|-----8--------------8--------------8------10---8--|
Eb|-------10-------------10-------------10-----------|
Bb|----------8-7-8-10-------8-7-8-10-----------------|
 F|--------------------------------------------------|
Bb|--------------------------------------------------|

After Chorus Guitar 1:
 C|--------------------------------------------------------------------|
 G|--666666--555555--333333---------------------------3333333-3h5h6p3--|
Eb|--------------------------222222--333333--5--3--5-------------------|
Bb|--------------------------------------------------------------------|
 F|--------------------------------------------------------------------|
Bb|--------------------------------------------------------------------|

After Chorus Guitar 2:
 C|--------------------------------------------------------------------|
 G|--------------------------------------------------------------------|
Eb|--------------------------------------------------------------------|
Bb|--0-0--0--0-0-0h3-0-0--0--320320-0-0--0--0-0--0--0-0--0-0-00h2h3-0--|
 F|--0-0--0--0-0-0h3-0-0--0--320320-0-0--0--0-0--0--0-0--0-0-----------|
Bb|--0-0--0--0-0-0h3-0-0--0--320320-0-0--0--0-0--0--0-0--0-0-----------|
                  pm         pmpmpm 

Verse 2 Guitar 1 (Aaron):
 C|------5-------8----5--------------5-------8----5--------|
 G|--6h8---5-----6-------8--6----6h8---5-----6-------8--6--|
Eb|----------(5)-7-----------------------(5)-7-------------|
Bb|--------------------------------------------------------|
 F|--------------------------------------------------------|
Bb|--------------------------------------------------------|

Verse 2 Guitar 2 (Ben): Strum
 C|--------------------------------------------------------|
 G|--------------------------------------------------------|
Eb|--------2-----3----5--3--2----------2-----3----5--3--2--|
Bb|--------2-----3----5--3--0----------2-----3----5--3--0--|
 F|--------0-----1----3--1--0----------0-----1----3--1--0--|
Bb|-------------------------0---------------------------0--|

Verse 2 Guitar 1:
 C|------5-------8----5--------------5-------8----5----------|
 G|--6h8---5-----6-------8--6----6h8---5-----6-------8-------|
Eb|----------(5)-7-----------------------(5)-7---------------|
Bb|----------------------------------------------------------|
 F|----------------------------------------------------------|
Bb|----------------------------------------------------------|

Verse 2 Guitar 2: Strum
 C|----------------------------------------------------------|
 G|----------------------------------------------------------|
Eb|--------2-----3----5--3--2----------2-----3-------55--33--|
Bb|--------2-----3----5--3--0----------2-----3----xxx55--33--|
 F|--------0-----1----3--1--0----------0-----1----xxx33--11--|
Bb|-------------------------0---------------------xxx--------|

Chorus 1 Guitar 2 (Ben):
 C|--------------------------------------------------|
 G|--------------------------------------------------|
Eb|------------5----5----5--5----2--3---3--5----3----|
Bb|--3----3-3--5----3----3--3----2--3---3--5----3----|
 F|--3----3-3--3----5----5--5----0--1---1--3----1----|
Bb|--3----3-3------(0)-------------------------------|x2

Chorus 1 Guitar 1 (Aaron):
 C|--------------------------------------------8-----|
 G|-----8--------------8--------------8----10----10--|
Eb|-------10-------------10-------------10-----------|
Bb|--10------8-7-8-10-------8-7-8-10-----------------|
 F|--------------------------------------------------|
Bb|--------------------------------------------------|

Guitar 1 Cont.
 C|--------------------------------------------------|
 G|-----8--------------8--------------8------10---8--|
Eb|-------10-------------10-------------10-----------|
Bb|----------8-7-8-10-------8-7-8-10-----------------|
 F|--------------------------------------------------|
Bb|--------------------------------------------------|

Chorus 2 Guitar 2: (I've lost my way)
 C|--------------------------------------------------|
 G|--------------------------------------------------|
Eb|------------5----5----5--5----2--3---3--5----3----|
Bb|--3----3-3--5----3----3--3----2--3---3--5----3----|
 F|--3----3-3--3----5----5--5----0--1---1--3----1----|
Bb|--3----3-3------(0)-------------------------------|

Chorus 2 Guitar 1: (I've lost my way)
 C|-----------8--------------8-----------8-----------|
 G|------8------10------8------10------------10---8--|
Eb|--------10-------------10-------------------------|
Bb|--10----------------------------------------------|
 F|--------------------------------------------------|
Bb|--------------------------------------------------|

After Chorus 2 Guitar 2:
 C|----------------------------|
 G|----------------------------|
Eb|--2------2------3----5---3--|
Bb|--0------2------3----5---3--|
 F|--0------0------1----3---1--|
Bb|--0-------------------------|

After Chorus 2 Guitar 1:
 C|----------------------------|
 G|----------------------------|
Eb|----------------------------|
Bb|--0------7------8----10--8--|
 F|--0------7------8----10--8--|
Bb|--0------7------8----10--8--|

Bridge Guitar 2: *play 2 times*           -|
 C|---------------------------------------||
 G|---------------------------------------||
Eb|---------------------------------------||
Bb|--0--0--12----10h11p10--7----5h6p5--3--||
 F|--0--0--12----10h11p10--7----5h6p5--3--||
Bb|--0--0--12----10h11p10--7----5h6p5--3--||
                                           |
Guitar 2 Cont.                             |
 C|---------------------------------------||
 G|---------------------------------------||
Eb|---------------------------------------||
Bb|--0--0--12----10h11p10--7----6----5----||
 F|--0--0--12----10h11p10--7----6----5----||
Bb|--0--0--12----10h11p10--7----6----5----||
                                          -|
Bridge Guitar 1:
 C|---------------------------------------|
 G|---------------------------------------|
Eb|---------------------------------------|
Bb|--0--0--12----10h11p10--7----5h6p5--3--|
 F|--0--0--12----10h11p10--7----5h6p5--3--|
Bb|--0--0--12----10h11p10--7----5h6p5--3--|

Guitar 1 Cont.
 C|---------------------------------------|
 G|---------------------------------------|
Eb|---------------------------------------|
Bb|--0--0--12----10h12p10--7----6----5----|
 F|--0--0--12----10h12p10--7----6----5----|
Bb|--0--0--12----10h12p10--7----6----5----|

Guitar 1 Cont.
 C|---------------------------------------|
 G|---------------------------------------|
Eb|---------------------------------------|
Bb|--0--0--12----10h11p10--7----5h6p5--3--|
 F|--0--0--12----10h11p10--7----5h6p5--3--|
Bb|--0--0--12----10h11p10--7----5h6p5--3--|

Guitar 1 Cont.
 C|----------------------(2/)-------------|
 G|-----------------------3/15------------|
Eb|---------------------------------------|
Bb|--0--0--12----10h11p10-----------------|
 F|--0--0--12----10h11p10-----------------|
Bb|--0--0--12----10h11p10-----------------|

Bridge Guitar 2 during Solo (Ben):
 C|---------------------------------------|
 G|---------------------------------------|
Eb|---------------------------------------|
Bb|---------------------------------------|
 F|--5---8-7------8-7------8-7-----8---7--|
Bb|-----------7--------8--------10---8----|

Solo (Aaron): *The |x#| thing is how many times you pick the notes/chord*
 C|---------------------------------------|
 G|--15|x12|--13|x12|--15|   |--17|   |---|
Eb|--------------------15|x12|--17|x12|---|
Bb|---------------------------------------|
 F|---------------------------------------|
Bb|---------------------------------------|

Guitar 2 cont. during Solo (Ben):
 C|--------------------------------------------------------|
 G|--------------------------------------------------------|
Eb|--------------------------------------------------------|
Bb|--------------------------------------------------------|
 F|--5------8--7----------8--7-------8--7---------8-----7--|
Bb|----------------7-------------8-----------10------8-----|

Guitar 1 solo cont.
 C|--17|  |-15|  |-13|  |-12|  |-13|   |-15|  |-17-15-17\--|
 G|--18|x6|-17|x6|-15|x6|-13|x6|-15|x12|-17|x6|-18-17-18\--|
Eb|--------------------------------------------------------|
Bb|--------------------------------------------------------|
 F|--------------------------------------------------------|
Bb|--------------------------------------------------------|
                                                       ^--Echos away
Chorus 1 Guitar 2 (Ben):
 C|--------------------------------------------------|
 G|--------------------------------------------------|
Eb|------------5----5----5--5----2--3---3--5----3----|
Bb|--3----3-3--5----3----3--3----2--3---3--5----3----|
 F|--3----3-3--3----5----5--5----0--1---1--3----1----|
Bb|--3----3-3------(0)-------------------------------|x2

Chorus 1 Guitar 1 (Aaron):
 C|--------------------------------------------8-----|
 G|----(8)-------------8--------------8----10----10--|
Eb|------(10)------------10-------------10-----------|
Bb|-(10)-----8-7-8-10-------8-7-8-10-----------------|
 F|--------------------------------------------------|
Bb|--------------------------------------------------|

Guitar 1 Cont.
 C|--------------------------------------------------|
 G|-----8--------------8--------------8------10---8--|
Eb|-------10-------------10-------------10-----------|
Bb|----------8-7-8-10-------8-7-8-10-----------------|
 F|--------------------------------------------------|
Bb|--------------------------------------------------|

Chorus 2 Guitar 2: (I've lost my way)
 C|--------------------------------------------------|
 G|--------------------------------------------------|
Eb|------------5----5----5--5----2--3---3--5----3----|
Bb|--3----3-3--5----3----3--3----2--3---3--5----3----|
 F|--3----3-3--3----5----5--5----0--1---1--3----1----|
Bb|--3----3-3------(0)-------------------------------|

Chorus 2 Guitar 1: (I've lost my way)
 C|-----------8--------------8-----------8-----------|
 G|------8------10------8------10------------10---8--|
Eb|--------10-------------10-------------------------|
Bb|--10----------------------------------------------|
 F|--------------------------------------------------|
Bb|--------------------------------------------------|

Chorus 3 Guitar 2: (Oo..Oo..Ooo..)
 C|---------------------------------------------------|
 G|---------------------------------------------------|
Eb|------------5----5----5--5----2--3---3--5----3-----|
Bb|--3----3-3--5----3----3--3----2--3---3--5----3-----|
 F|--3----3-3--3----5----5--5----0--1---1--3----1-----|
Bb|--3----3-3------(0)--------------------------------|

Chorus 3 Guitar 1: (Oo..Oo..Ooo..)
 C|-----8-------8-------8-------8-------8-------8-----|
 G|-------10------10------10------10------10------10--|
Eb|--10------10------10------10------10------10-------|
Bb|---------------------------------------------------|
 F|---------------------------------------------------|
Bb|---------------------------------------------------|

Chorus 4 Guitar 2: (The final fight I'll win)
 C|---------------------------------------------------|
 G|---------------------------------------------------|
Eb|------------5----5----5--5----2--3---3--5----3-----|
Bb|--3----3-3--5----3----3--3----2--3---3--5----3-----|
 F|--3----3-3--3----5----5--5----0--1---1--3----1-----|
Bb|--3----3-3------(0)--------------------------------|

Chorus 4 Guitar 1: (The final fight I'll win)
 C|-----8-------8-------8-------8-------8-------------|
 G|-------10------10------10------10--------10--8--6--|
Eb|--10------10------10------10------10---------------|
Bb|---------------------------------------------------|
 F|---------------------------------------------------|
Bb|---------------------------------------------------|

Outro Guitar 2 (Ben):
 C|---------------------|
 G|---------------------|
Eb|--2--------2------3--|
Bb|--0--------2------3--|
 F|--0--------0------1--|
Bb|--0------------------|

Outro Guitar 1 (Aaron):
 C|---------5--------8--|
 G|-----6h8---5------6--|
Eb|-------------5----7--|
Bb|---------------------|
 F|---------------------|
Bb|---------------------|




07. Dance With The Devil

Intro: Guitar 1 (Ben)
 C|------------------------------------------------|
 G|------------------------------------------------|  
Eb|--------0-0---0---0---0--------0-0---0---0---0--| 
Bb|--3/5-5-----5---5---5----3/5-5-----5---5---5----| 
 F|------------------------------------------------|
Bb|------------------------------------------------|

 C|------------------------------------------------|
 G|------------------------------------------------|  
Eb|---------7p5--------5---------8p7-----8\7-10p7--| 
Bb|--3/5-5------5--7-7---/8--7h8------10-----------| 
 F|------------------------------------------------|
Bb|------------------------------------------------|

 C|------------------------------------------------|
 G|------------------------------------------------|  
Eb|----------10--------------10--------------10----| 
Bb|--12-13p12--12----12-13p12--12----12-13p12--12--| 
 F|------------------------------------------------|
Bb|------------------------------------------------|

 C|-------------------|
 G|-------------------|  
Eb|-------------------| 
Bb|--12brb-12brb-12b--| 
 F|-------------------|
Bb|-------------------|

Guitars 1 and 3:
 C|----------------------------|
 G|----------------------------|
Eb|----------------------------|
Bb|--5--5--5p3--5p3--8p5--3h6--|
 F|--5--5--5p3--5p3--8p5--3h6--|
Bb|--5--5--5p3--5p3--8p5--3h6--|x3

 C|------------------------------|
 G|------------------------------|
Eb|---------------------------7--|
Bb|--5--5--5p3--8-8-8--6-6-6--5--|
 F|--5--5--5p3--8-8-8--6-6-6--5--|
Bb|--5--5--5p3--8-8-8--6-6-6--5--|
                              ^-- guitar 3 only (let ring)

Verse 1: Guitar 1 (Ben) *Play verse 4 times*
 C|----------------------------------------------------|
 G|----------------------------------------------------|  
Eb|---------7p5--------5---------8p7-------8\7--10p7---| 
Bb|--3/5-5------5--7-7---/8--7h8-------10--------------| 
 F|----------------------------------------------------|
Bb|----------------------------------------------------|

Verse 1: Guitar 2 (Aaron)
 C|---------10p8-------8---------11p10----11\10-13p10--|
 G|------8----------10---/11--11-------13--------------|  
Eb|----------------------------------------------------| 
Bb|----------------------------------------------------| 
 F|----------------------------------------------------|
Bb|----------------------------------------------------|

Verse 1 cont. (Ben)
 C|------------------------------------------------|
 G|------------------------------------------------|  
Eb|----------10--------------10--------------10----| 
Bb|--12-13p12--12----12-13p12--12----12-13p12--12--| 
 F|------------------------------------------------|
Bb|------------------------------------------------|

Verse 1 cont. (Aaron)
 C|----------13--------------13--------------13----|
 G|--15-16p15--15----15-16p15--15----15-16p15--15--|
Eb|------------------------------------------------|
Bb|------------------------------------------------|
 F|------------------------------------------------|
Bb|------------------------------------------------|

Verse 1 cont. (Ben)
 C|-------------------|
 G|-------------------|  
Eb|-------------------| 
Bb|--12brb-12brb-12b--| 
 F|-------------------|
Bb|-------------------|

Verse 1 cont. (Aaron)
 C|-------------------|
 G|--15brb-15brb-15b--|  
Eb|-------------------| 
Bb|-------------------| 
 F|-------------------|
Bb|-------------------|

Chorus Guitar 1 (Ben)
 C|---------------------------------------------------------|
 G|---------------------------------------------------------|
Eb|---------------------------------------------------------|
Bb|--5--5--5-5-5---3--3--3-3-3---1--1--1-1-1---1--1--1-1-1--| 
 F|--5--5--5-5-5---3--3--3-3-3---1--1--1-1-1---1--1--1-1-1--|
Bb|--5--5--5-5-5---3--3--3-3-3---1--1--1-1-1---1--1--1-1-1--|x4

Chorus Guitar 2 (Aaron) *play 2 times*
 C|---------------------------------------------------------|
 G|------15--------18------15----16--15--------18------15---|
Eb|--15------17--------17----------------17--------17-------|
Bb|---------------------------------------------------------|
 F|---------------------------------------------------------|
Bb|---------------------------------------------------------|

Chorus Guitar 2 cont.
 C|---------------------------------------------------------|
 G|------15--------18------15----16--15--------18--16--15---|
Eb|--15------17--------17----------------17-----------------|
Bb|---------------------------------------------------------|
 F|---------------------------------------------------------|
Bb|---------------------------------------------------------|

Chorus Guitar 3 (unknown)
 C|---------------------------------------------------------|
 G|---------------------------------------------------------|
Eb|--7--7--7-7-7---5--5--5-5-5---8--8--8-8-8---8--8--8-8-8--|
Bb|--5--5--5-5-5---3--3--3-3-3---8--8--8-8-8---8--8--8-8-8--| 
 F|--5--5--5-5-5---3--3--3-3-3---6--6--6-6-6---6--6--6-6-6--|
Bb|--5--5--5-5-5---3--3--3-3-3------------------------------|x4

After Chorus Guitars 1 and 3:
 C|----------------------------|
 G|----------------------------|
Eb|----------------------------|
Bb|--5--5--5p3--5p3--8p5--3h6--|
 F|--5--5--5p3--5p3--8p5--3h6--|
Bb|--5--5--5p3--5p3--8p5--3h6--|

 C|------------------------------|
 G|------------------------------|
Eb|---------------------------7--|
Bb|--5--5--5p3--8-8-8--6-6-6--5--|
 F|--5--5--5p3--8-8-8--6-6-6--5--|
Bb|--5--5--5p3--8-8-8--6-6-6--5--|
                              ^-- guitar 3 only (let ring)

Verse 2: Guitar 1 (Ben) *Play verse 4 times*
 C|----------------------------------------------------|
 G|----------------------------------------------------|  
Eb|---------7p5--------5---------8p7-------8\7--10p7---| 
Bb|--3/5-5------5--7-7---/8--7h8-------10--------------| 
 F|----------------------------------------------------|
Bb|----------------------------------------------------|

Verse 2: Guitar 2 (Aaron)
 C|---------10p8-------8---------11p10----11\10-13p10--|
 G|------8----------10---/11--11-------13--------------|  
Eb|----------------------------------------------------| 
Bb|----------------------------------------------------| 
 F|----------------------------------------------------|
Bb|----------------------------------------------------|

Verse 2 cont. (Ben)
 C|------------------------------------------------|
 G|------------------------------------------------|  
Eb|----------10--------------10--------------10----| 
Bb|--12-13p12--12----12-13p12--12----12-13p12--12--| 
 F|------------------------------------------------|
Bb|------------------------------------------------|

Verse 2 cont. (Aaron)
 C|----------13--------------13--------------13----|
 G|--15-16p15--15----15-16p15--15----15-16p15--15--|
Eb|------------------------------------------------|
Bb|------------------------------------------------|
 F|------------------------------------------------|
Bb|------------------------------------------------|

Verse 2 cont. (Ben)
 C|-------------------|
 G|-------------------|  
Eb|-------------------| 
Bb|--12brb-12brb-12b--| 
 F|-------------------|
Bb|-------------------|

Verse 2 cont. (Aaron)
 C|-------------------|
 G|--15brb-15brb-15b--|  
Eb|-------------------| 
Bb|-------------------| 
 F|-------------------|
Bb|-------------------|

Chorus Guitar 1 (Ben)
 C|---------------------------------------------------------|
 G|---------------------------------------------------------|
Eb|---------------------------------------------------------|
Bb|--5--5--5-5-5---3--3--3-3-3---1--1--1-1-1---1--1--1-1-1--| 
 F|--5--5--5-5-5---3--3--3-3-3---1--1--1-1-1---1--1--1-1-1--|
Bb|--5--5--5-5-5---3--3--3-3-3---1--1--1-1-1---1--1--1-1-1--|x3

Guitar 1 on 4th time:
 C|---------------------------------------------------------|
 G|---------------------------------------------------------|
Eb|---------------------------------------------------------|
Bb|--5--5--5-5-5---3--3--3-3-3---1--1--1-1-1----------------| 
 F|--5--5--5-5-5---3--3--3-3-3---1--1--1-1-1----------------|
Bb|--5--5--5-5-5---3--3--3-3-3---1--1--1-1-1----------------|

Chorus Guitar 2 (Aaron)
 C|---------------------------------------------------------|
 G|------15--------18------15----16--15--------18------15---|
Eb|--15------17--------17----------------17--------17-------|
Bb|---------------------------------------------------------|
 F|---------------------------------------------------------|
Bb|---------------------------------------------------------|

Chorus Guitar 2 cont.
 C|---------------------------------------------------------|
 G|------15--------18------15----16--15--------18--16--15---|
Eb|--15------17--------17----------------17-----------------|
Bb|---------------------------------------------------------|
 F|---------------------------------------------------------|
Bb|---------------------------------------------------------|

Chorus Guitar 2 (Aaron)
 C|---------------------------------------------------------|
 G|------15--------18------15----16--15--------18------15---|
Eb|--15------17--------17----------------17--------17-------|
Bb|---------------------------------------------------------|
 F|---------------------------------------------------------|
Bb|---------------------------------------------------------|

Chorus Guitar 2 cont.
 C|---------------------------------------------------------|
 G|------15--------18------15----16--15---------------------|
Eb|--15------17--------17----------------17-----------------|
Bb|---------------------------------------------------------|
 F|---------------------------------------------------------|
Bb|---------------------------------------------------------|

Chorus Guitar 3 (unknown)
 C|---------------------------------------------------------|
 G|---------------------------------------------------------|
Eb|--7--7--7-7-7---5--5--5-5-5---8--8--8-8-8---8--8--8-8-8--|
Bb|--5--5--5-5-5---3--3--3-3-3---8--8--8-8-8---8--8--8-8-8--| 
 F|--5--5--5-5-5---3--3--3-3-3---6--6--6-6-6---6--6--6-6-6--|
Bb|--5--5--5-5-5---3--3--3-3-3------------------------------|x3

Guitar 3 on 4th time:
 C|---------------------------------------------------------|
 G|---------------------------------------------------------|
Eb|--7--7--7-7-7---5--5--5-5-5---8--8--8-8-8----------------|
Bb|--5--5--5-5-5---3--3--3-3-3---8--8--8-8-8----------------| 
 F|--5--5--5-5-5---3--3--3-3-3---6--6--6-6-6----------------|
Bb|--5--5--5-5-5---3--3--3-3-3------------------------------|

Bridge Guitars 1 and 2
 C|----------------------------------------------------------x-x-x--|
 G|--------------------------------------------------3-3-3---3-3-3--|
Eb|--2h3p2p0---------------------2h3p2p0-------------3-3-3---3-3-3--|
Bb|-----------0--0-0-0---1--1-1-----------0--0-0-0---1-1-1---3-3-3--|
 F|-----------0--0-0-0---1--1-1-----------0--0-0-0---1-1-1---3-3-3--|
Bb|-----------0--0-0-0---1--1-1-----------0--0-0-0---1-1-1---3-3-3--|
                                                    |_____________| 
                                                     Guitar 2 only
Bridge Guitars 1
 C|-----------------------------------------------------------------|
 G|-----------------------------------------------------15----------|
Eb|------------------------------------------------------x----------|
Bb|--------------------------------------------------12-12----------| 
 F|-----------------------------------------------------------------|
Bb|-----------------------------------------------------------------|
                                                         ^--tremolo pick 

Guitar 2 during solo:
 C|---------------------------------------------------------------------|
 G|---------------------------------------------------------------------|
Eb|---------------------------------------------------------------------|
Bb|--5----3----1-------1----3----5-------5----8----1-------1----3----5--|
 F|--5----3----1-------1----3----5-------5----8----1-------1----3----5--|
Bb|--5----3----1-------1----3----5-------5----8----1-------1----3----5--|

Solo Guitar 1: (Ben)
 C|--17-17h18--18-17-15-15h17-15\13h15-15-15-15\------18-18-18--17-17-17--|
 G|---------------------------------------------15h18-15-15-15--15-15-15--|
Eb|-----------------------------------------------------------------------|
Bb|-----------------------------------------------------------------------| 
 F|-----------------------------------------------------------------------|
Bb|-----------------------------------------------------------------------|

 C|---------------------18-18-18-22-18-22-22-22-22-22-22-22-22-22-22-22\--|
 G|--15b(16-16)15-15-15-15------------------------------------------------|
Eb|---x---x--x--x--x--x--x------------------------------------------------|
Bb|--12b(13-13)12-12-12-12------------------------------------------------|
 F|-----------------------------------------------------------------------|
Bb|-----------------------------------------------------------------------|

Chorus Guitar 1 (Ben)
 C|---------------------------------------------------------|
 G|---------------------------------------------------------|
Eb|---------------------------------------------------------|
Bb|--5--5--5-5-5---3--3--3-3-3---1--1--1-1-1---1--1--1-1-1--| 
 F|--5--5--5-5-5---3--3--3-3-3---1--1--1-1-1---1--1--1-1-1--|
Bb|--5--5--5-5-5---3--3--3-3-3---1--1--1-1-1---1--1--1-1-1--|x3

Guitar 1 on 4th time:
 C|---------------------------------------------------------|
 G|---------------------------------------------------------|
Eb|---------------------------------------------------------|
Bb|--5--5--5-5-5---3--3--3-3-3---1--1--1-1-1----------------| 
 F|--5--5--5-5-5---3--3--3-3-3---1--1--1-1-1----------------|
Bb|--5--5--5-5-5---3--3--3-3-3---1--1--1-1-1----------------|

Chorus Guitar 2 (Aaron)
 C|---------------------------------------------------------|
 G|------15--------18------15----16--15--------18------15---|
Eb|--15------17--------17----------------17--------17-------|
Bb|---------------------------------------------------------|
 F|---------------------------------------------------------|
Bb|---------------------------------------------------------|

Chorus Guitar 2 cont.
 C|---------------------------------------------------------|
 G|------15--------18------15----16--15--------18--16--15---|
Eb|--15------17--------17----------------17-----------------|
Bb|---------------------------------------------------------|
 F|---------------------------------------------------------|
Bb|---------------------------------------------------------|

Chorus Guitar 2 (Aaron)
 C|---------------------------------------------------------|
 G|------15--------18------15----16--15--------18------15---|
Eb|--15------17--------17----------------17--------17-------|
Bb|---------------------------------------------------------|
 F|---------------------------------------------------------|
Bb|---------------------------------------------------------|

Chorus Guitar 2 cont.
 C|---------------------------------------------------------|
 G|------15--------18------15----16--15---------------------|
Eb|--15------17--------17----------------17-----------------|
Bb|---------------------------------------------------------|
 F|---------------------------------------------------------|
Bb|---------------------------------------------------------|

Chorus Guitar 3 (unknown)
 C|---------------------------------------------------------|
 G|---------------------------------------------------------|
Eb|--7--7--7-7-7---5--5--5-5-5---8--8--8-8-8---8--8--8-8-8--|
Bb|--5--5--5-5-5---3--3--3-3-3---8--8--8-8-8---8--8--8-8-8--| 
 F|--5--5--5-5-5---3--3--3-3-3---6--6--6-6-6---6--6--6-6-6--|
Bb|--5--5--5-5-5---3--3--3-3-3------------------------------|x3

Guitar 3 on 4th time:
 C|---------------------------------------------------------|
 G|---------------------------------------------------------|
Eb|--7--7--7-7-7---5--5--5-5-5---8--8--8-8-8----------------|
Bb|--5--5--5-5-5---3--3--3-3-3---8--8--8-8-8----------------| 
 F|--5--5--5-5-5---3--3--3-3-3---6--6--6-6-6----------------|
Bb|--5--5--5-5-5---3--3--3-3-3------------------------------|

Outro Guitars 1 and 2
 C|-------------------------------------------------|
 G|-------------------------------------------------|
Eb|--2h3p2p0---------------------2h3p2p0------------|
Bb|-----------0--0-0-0---1--1-1-----------0--0-0-0--|
 F|-----------0--0-0-0---1--1-1-----------0--0-0-0--|
Bb|-----------0--0-0-0---1--1-1-----------0--0-0-0--|

Outro cont. Guitar 1
 C|---------------------------------------------------|
 G|---------------------------------------------------|
Eb|---------------------------------------------------|
Bb|--x1-1---x3-3----5---------------------------------|
 F|--x1-1---x3-3----5---------------------------------|
Bb|--x1-1---x3-3----5---------------------------------|

Outro Guitar 2/Piano
 C|---------------------------------------------------|
 G|----------------------15-16-15---------15-16-15----|
Eb|--------------------15--(19)--15-----15--(19)--15--|
Bb|-----------------17---------------17---------------|
 F|---------------------------------------------------|
Bb|---------------------------------------------------|

Outro cont. Guitar 1
 C|------------------------------------|
 G|------------------------------------|
Eb|------------------------------------|
Bb|------------------------------------|
 F|--1---------------------------------|
Bb|--1---------------------------------|

Outro cont. Guitar 2/Piano
 C|------------------------------------|
 G|-------15-16-15---------15-16-15----|
Eb|-----15--(19)--15-----15--(19)--15--|
Bb|--17---------------17---------------|
 F|------------------------------------|
Bb|------------------------------------|

Outro cont. Guitar 1
 C|------------------------------------|
 G|------------------------------------|
Eb|------------------------------------|
Bb|------------------------------------|
 F|--5---------------------------------|
Bb|--5---------------------------------|

Outro Guitar 2/Piano
 C|------------------------------------|
 G|-------15-16-15---------15-16-15----|
Eb|-----15--(19)--15-----15--(19)--15--|
Bb|--17---------------17---------------|
 F|------------------------------------|
Bb|------------------------------------|

Outro cont. Guitar 1
 C|------------------------------------|
 G|------------------------------------|
Eb|------------------------------------|
Bb|------------------------------------|
 F|--1---------------------------------|
Bb|--1---------------------------------|

Outro cont. Guitar 2/Piano
 C|------------------------------------|
 G|------------------------------------|
Eb|------------------------------------|
Bb|--17------15------13--------12------|
 F|------------------------------------|
Bb|------------------------------------|




08. Topless

Intro Guitar 1 (Ben)
Eb|----------------------------------------------------------|
Bb|----------------------------------------------------------|
Gb|----------------------------------------------------------|
Db|-----------------------------------------------------2h3--|
Ab|-----------------------------------------------------2h3--|
Db|--0-2--0-2--0-2--0-2p0-2h3-3-3--0-2--0-2--0-2--0-2p0-2h3--|

Intro Guitar 2 (Aaron)
Eb|----------------------------------------------------------|
Bb|----------------------------------------------------------|
Gb|----------------------------------------------------------|
Db|-----------------------------------------------------2h3--|
Ab|-----------------------------------------------------2h3--|
Db|-----------------------------------------------------2h3--|

Guitar 1
Eb|----------------------------------------------------------|
Bb|----------------------------------------------------------|
Gb|----------------------------------------------------------|
Db|--0-2--0-2--0-2--0-2p0-2h3-3-3--0-2--0-2--0-2--0-2p0-2h3--|
Ab|--0-2--0-2--0-2--0-2p0-2h3-3-3--0-2--0-2--0-2--0-2p0-2h3--|
Db|--0-2--0-2--0-2--0-2p0-2h3-3-3--0-2--0-2--0-2--0-2p0-2h3--|

Guitar 2
Eb|---------------------------0------------------------------|
Bb|---------------------------0------------------------------|
Gb|----------------------------------------------------------|
Db|--0-2--0-2--0-2--0-2p0-2h3------0-2--0-2--0-2--0-2p0-2h3--|
Ab|--0-2--0-2--0-2--0-2p0-2h3------0-2--0-2--0-2--0-2p0-2h3--|
Db|--0-2--0-2--0-2--0-2p0-2h3------0-2--0-2--0-2--0-2p0-2h3--|

Guitar 1
Eb|---------------------------------------------------------|
Bb|---------------------------------------------------------|
Gb|---------------------------------------------------------|
Db|--0-2--0-2--0-2--0-2p0-2h3-3-3--2-2--2-2--2-2------------|
Ab|--0-2--0-2--0-2--0-2p0-2h3-3-3--2-2--2-2--2-2------------|
Db|--0-2--0-2--0-2--0-2p0-2h3-3-3--2-2--2-2--2-2------------|

Guitar 2
Eb|---------------------------0-------------------------5*--|
Bb|---------------------------0---------------------5*------|
Gb|-----------------------------------------------5*--5*----|
Db|--0-2--0-2--0-2--0-2p0-2h3------2-2--2-2--2-2------------|
Ab|--0-2--0-2--0-2--0-2p0-2h3------2-2--2-2--2-2------------|
Db|--0-2--0-2--0-2--0-2p0-2h3------2-2--2-2--2-2------------|

Verse 1 Guitars 1 and 2
Eb|--------------0-------------0-------------0--------------------------|
Bb|--------------5-------------5-------------5--------------------------|
Gb|--------------5-------------5-------------5--------------------------|
Db|--------------3-------------3-------------3--------------------------|
Ab|--02-0-2p0-22-3-02-0-2p0-22-3-02-0-2p0-22-3-02-0-2p0-22-0-2p0-2h333--|
Db|--02-0-2p0-22-3-02-0-2p0-22-3-02-0-2p0-22-3-02-0-2p0-22-0-2p0-2h333--|
     pmpmpmpmpmpm  pmpmpmpmpmpm  pmpmpmpmpmpm  pmpmpmpmpmpmpmpmpm

Verse 1 Guitar 1 (Ben) Cont.
Eb|----------------0---------------0---------------0--|
Bb|----------------5---------------5---------------5--|
Gb|----------------5---------------5---------------5--|
Db|----------------3---------------3---------------3--|
Ab|--02-0-2p0-22xxx3-02-0-2p0-22xxx3-02-0-2p0-22xxx3--|
Db|--02-0-2p0-22xxx3-02-0-2p0-22xxx3-02-0-2p0-22xxx3--|

Verse 1 Guitar 2 (Aaron) Cont.
Eb|----------------0---------------0---------------0--|
Bb|----------------5---------------5---------------5--|
Gb|----------------5---------------5---------------5--|
Db|----------------3---------------3---------------3--|
Ab|--02-0-2p0-22xxx3-02-0-2p0-22xxx3-02-0-2p0-22xxx3--|
Db|--02-0-2p0-22xxx3-02-0-2p0-22xxx3-02-0-2p0-22xxx3--|

Guitar 1 Cont.
Eb|---------------------------|
Bb|---------------------------|
Gb|---------------------------|
Db|---------------------------|
Ab|--02-0-2p0-22-0-2p0-2h333--|
Db|--02-0-2p0-22-0-2p0-2h333--|

Guitar 2 Cont.
Eb|---------------------------|
Bb|---------------------------|
Gb|---------------------9999--|
Db|---------------------xxxx--|
Ab|--02-0-2p0-22-0-2p0--7777--|
Db|--02-0-2p0-22-0-2p0--------|

Chorus Guitars 1 and 2
Eb|-----------------------------------------------|
Bb|-----------------------------------------------|
Gb|--555555555/777777777/999999999/121212-111111--|
Db|--xxxxxxxxx/xxxxxxxxx/xxxxxxxxx/x-x-x--x-x-x---|
Ab|--333333333/555555555/777777777/101010-9-9-9---|
Db|-----------------------------------------------|

Chorus Guitar 1
Eb|----------------------------------------------------------|
Bb|----------------------------------------------------------|
Gb|----------------------------------------------------------|
Db|--0-2--0-2--0-2--0-2p0-2h3-3-3--0-2--0-2--0-2--0-2p0-2h3--|
Ab|--0-2--0-2--0-2--0-2p0-2h3-3-3--0-2--0-2--0-2--0-2p0-2h3--|
Db|--0-2--0-2--0-2--0-2p0-2h3-3-3--0-2--0-2--0-2--0-2p0-2h3--|

Chorus Guitar 2
Eb|---------------------------0------------------------------|
Bb|---------------------------0------------------------------|
Gb|----------------------------------------------------------|
Db|--0-2--0-2--0-2--0-2p0-2h3------0-2--0-2--0-2--0-2p0-2h3--|
Ab|--0-2--0-2--0-2--0-2p0-2h3------0-2--0-2--0-2--0-2p0-2h3--|
Db|--0-2--0-2--0-2--0-2p0-2h3------0-2--0-2--0-2--0-2p0-2h3--|

Chorus Cont. Guitars 1 and 2
Eb|-----------------------------------------------|
Bb|--------------------------------121212-101010--|
Gb|--555555555/777777777/999999999-x-x-x--x-x-x---|
Db|--xxxxxxxxx/xxxxxxxxx/xxxxxxxxx-9-9-9--7-7-7---|
Ab|--333333333/555555555/777777777----------------|
Db|-----------------------------------------------|

Chorus Guitar 1
Eb|----------------------------------------------------------|
Bb|----------------------------------------------------------|
Gb|----------------------------------------------------------|
Db|--0-2--0-2--0-2--0-2p0-2h3-3-3--0-2--0-2--0-2--0-2p0-2h3--|
Ab|--0-2--0-2--0-2--0-2p0-2h3-3-3--0-2--0-2--0-2--0-2p0-2h3--|
Db|--0-2--0-2--0-2--0-2p0-2h3-3-3--0-2--0-2--0-2--0-2p0-2h3--|

Chorus Guitar 2
Eb|---------------------------0------------------------------|
Bb|---------------------------0------------------------------|
Gb|----------------------------------------------------------|
Db|--0-2--0-2--0-2--0-2p0-2h3------0-2--0-2--0-2--0-2p0-2h3--|
Ab|--0-2--0-2--0-2--0-2p0-2h3------0-2--0-2--0-2--0-2p0-2h3--|
Db|--0-2--0-2--0-2--0-2p0-2h3------0-2--0-2--0-2--0-2p0-2h3--|

End of Chorus Guitar 1
Eb|---------------------------------------------------------|
Bb|---------------------------------------------------------|
Gb|---------------------------------------------------------|
Db|--0-2--0-2--0-2--0-2p0-2h3-3-3--2-2--2-2--2-2------------|
Ab|--0-2--0-2--0-2--0-2p0-2h3-3-3--2-2--2-2--2-2------------|
Db|--0-2--0-2--0-2--0-2p0-2h3-3-3--2-2--2-2--2-2------------|

End of Chorus Guitar 2
Eb|---------------------------0-------------------------5*--|
Bb|---------------------------0---------------------5*------|
Gb|-----------------------------------------------5*--5*----|
Db|--0-2--0-2--0-2--0-2p0-2h3------2-2--2-2--2-2------------|
Ab|--0-2--0-2--0-2--0-2p0-2h3------2-2--2-2--2-2------------|
Db|--0-2--0-2--0-2--0-2p0-2h3------2-2--2-2--2-2------------|

Verse 2 Guitars 1 and 2
Eb|--------------0-------------0-------------0--------------------------|
Bb|--------------5-------------5-------------5--------------------------|
Gb|--------------5-------------5-------------5--------------------------|
Db|--------------3-------------3-------------3--------------------------|
Ab|--02-0-2p0-22-3-02-0-2p0-22-3-02-0-2p0-22-3-02-0-2p0-22-0-2p0-2h333--|
Db|--02-0-2p0-22-3-02-0-2p0-22-3-02-0-2p0-22-3-02-0-2p0-22-0-2p0-2h333--|
     pmpmpmpmpmpm  pmpmpmpmpmpm  pmpmpmpmpmpm  pmpmpmpmpmpmpmpmpm

Verse 2 Guitar 1 (Ben) Cont.
Eb|----------------0---------------0---------------0--|
Bb|----------------5---------------5---------------5--|
Gb|----------------5---------------5---------------5--|
Db|----------------3---------------3---------------3--|
Ab|--02-0-2p0-22xxx3-02-0-2p0-22xxx3-02-0-2p0-22xxx3--|
Db|--02-0-2p0-22xxx3-02-0-2p0-22xxx3-02-0-2p0-22xxx3--|

Verse 2 Guitar 2 (Aaron) Cont.
Eb|----------------0---------------0---------------0--|
Bb|----------------5---------------5---------------5--|
Gb|----------------5---------------5---------------5--|
Db|----------------3---------------3---------------3--|
Ab|--02-0-2p0-22xxx3-02-0-2p0-22xxx3-02-0-2p0-22xxx3--|
Db|--02-0-2p0-22xxx3-02-0-2p0-22xxx3-02-0-2p0-22xxx3--|

Guitar 1 Cont.
Eb|---------------------------|
Bb|---------------------------|
Gb|---------------------------|
Db|---------------------------|
Ab|--02-0-2p0-22-0-2p0-2h333--|
Db|--02-0-2p0-22-0-2p0-2h333--|

Guitar 2 Cont.
Eb|---------------------------|
Bb|---------------------------|
Gb|---------------------9999--|
Db|---------------------xxxx--|
Ab|--02-0-2p0-22-0-2p0--7777--|
Db|--02-0-2p0-22-0-2p0--------|

Chorus Guitars 1 and 2
Eb|-----------------------------------------------|
Bb|-----------------------------------------------|
Gb|--555555555/777777777/999999999/121212-111111--|
Db|--xxxxxxxxx/xxxxxxxxx/xxxxxxxxx/x-x-x--x-x-x---|
Ab|--333333333/555555555/777777777/101010-9-9-9---|
Db|-----------------------------------------------|

Chorus Guitar 1
Eb|----------------------------------------------------------|
Bb|----------------------------------------------------------|
Gb|----------------------------------------------------------|
Db|--0-2--0-2--0-2--0-2p0-2h3-3-3--0-2--0-2--0-2--0-2p0-2h3--|
Ab|--0-2--0-2--0-2--0-2p0-2h3-3-3--0-2--0-2--0-2--0-2p0-2h3--|
Db|--0-2--0-2--0-2--0-2p0-2h3-3-3--0-2--0-2--0-2--0-2p0-2h3--|

Chorus Guitar 2
Eb|---------------------------0------------------------------|
Bb|---------------------------0------------------------------|
Gb|----------------------------------------------------------|
Db|--0-2--0-2--0-2--0-2p0-2h3------0-2--0-2--0-2--0-2p0-2h3--|
Ab|--0-2--0-2--0-2--0-2p0-2h3------0-2--0-2--0-2--0-2p0-2h3--|
Db|--0-2--0-2--0-2--0-2p0-2h3------0-2--0-2--0-2--0-2p0-2h3--|

Chorus Cont. Guitars 1 and 2
Eb|-----------------------------------------------|
Bb|--------------------------------121212-101010--|
Gb|--555555555/777777777/999999999-x-x-x--x-x-x---|
Db|--xxxxxxxxx/xxxxxxxxx/xxxxxxxxx-9-9-9--7-7-7---|
Ab|--333333333/555555555/777777777----------------|
Db|-----------------------------------------------|

Chorus Guitar 1
Eb|----------------------------------------------------------|
Bb|----------------------------------------------------------|
Gb|----------------------------------------------------------|
Db|--0-2--0-2--0-2--0-2p0-2h3-3-3--0-2--0-2--0-2--0-2p0-2h3--|
Ab|--0-2--0-2--0-2--0-2p0-2h3-3-3--0-2--0-2--0-2--0-2p0-2h3--|
Db|--0-2--0-2--0-2--0-2p0-2h3-3-3--0-2--0-2--0-2--0-2p0-2h3--|

Chorus Guitar 2
Eb|---------------------------0------------------------------|
Bb|---------------------------0------------------------------|
Gb|----------------------------------------------------------|
Db|--0-2--0-2--0-2--0-2p0-2h3------0-2--0-2--0-2--0-2p0-2h3--|
Ab|--0-2--0-2--0-2--0-2p0-2h3------0-2--0-2--0-2--0-2p0-2h3--|
Db|--0-2--0-2--0-2--0-2p0-2h3------0-2--0-2--0-2--0-2p0-2h3--|

End of Chorus Guitar 1
Eb|----------------------------------------------------|
Bb|----------------------------------------------------|
Gb|----------------------------------------------------|
Db|--0-2--0-2--0-2--0-2p0-2h3-3-3--2-2--2-2--2-2-------|
Ab|--0-2--0-2--0-2--0-2p0-2h3-3-3--2-2--2-2--2-2-------|
Db|--0-2--0-2--0-2--0-2p0-2h3-3-3--2-2--2-2--2-2--1/7--|
                                                  ^--use a slider

End of Chorus Guitar 2
Eb|---------------------------0------------------------|
Bb|---------------------------0------------------------|
Gb|----------------------------------------------------|
Db|--0-2--0-2--0-2--0-2p0-2h3------2-2--2-2--2-2-------|
Ab|--0-2--0-2--0-2--0-2p0-2h3------2-2--2-2--2-2-------|
Db|--0-2--0-2--0-2--0-2p0-2h3------2-2--2-2--2-2-------|

Bridge Guitars 1 and 2 Palm muted
Eb|---------------------------------------------------------------|
Bb|---------------------------------------------------------------|
Gb|---------------------------------------------------------------|
Db|---------------------------------------------------------------|
Ab|---------------------------------------------------------------|
Db|--2-0-2-0-5-0-2-0-2-0-7-0-2-0-8-0-2p002-0-5-0-2-0-2-0-7-0-8-0--|

Eb|---------------------------------------------------------|
Bb|---------------------------------------------------------|
Gb|---------------------------------------------------------|
Db|--------------------------------------------------x7-x8--|
Ab|--------------------------------------------------x7-x8--|
Db|--2-0-2-0-5-0-2-0-2-0-7-0-2-0-8-0-2p002-0-5-0-2-0-x7-x8--|
                                                     ^--End palm mute
Guitar 1 Cont.
Eb|---------------------------------------------------------------|
Bb|---------------------------------------------------------------|
Gb|---------------------------------------------------------------|
Db|---------------------------------------------------------------|
Ab|---------------------------------------------------------------|
Db|--2-0-2-0-5-0-2-0-2-0-7-0-2-0-8-0-2-0-2-0-5-0-2-0-2-0-7-0-8-0--|

Guitar 1 Cont.
Eb|---------------------------------------------------------------|
Bb|---------------------------------------------------------------|
Gb|---------------------------------------------------------------|
Db|--2-0-2-0-5-0-2-0-2-0-7-0-2-0-8-0-2-0-2-0-5-0-2-0-x7-x8-x5-x3--|
Ab|--------------------------------------------------x7-x8-x5-x3--|
Db|--------------------------------------------------x7-x8-x5-x3--|

Guitar 1 Cont.
Eb|-------------------------------------|
Bb|-------------------------------------|
Gb|-------------------------------------|
Db|-------------------------------------|
Ab|--0h222--3p2--3----0h222--3p2--3-----|
Db|--0h222--3p2--3----0h222--3p2--3-----|x2

Guitar 2 (2, 4, and 5's)
Eb|-------------------------------------|
Bb|-------------------------------------|
Gb|--------------5544-------------5544--|
Db|--224455442244-----224455442244------|
Ab|-------------------------------------|
Db|-------------------------------------|

Guitar 2 cont. (14, 16, and 17's)
Eb|---------------------------------------------------------------------|
Bb|---------------------------------------------------------------------|
Gb|--------------------------17171616-------------------------17171616--|
Db|--141416161717161614141616---------141416161717161614141616----------|
Ab|---------------------------------------------------------------------|
Db|---------------------------------------------------------------------|

Chorus Guitar 1
Eb|-------------------------------------------------|
Bb|-------------------------------------------------|
Gb|--555555555/777777777/999999999/121212-111111----|
Db|--xxxxxxxxx/xxxxxxxxx/xxxxxxxxx/x-x-x--x-x-x-----|
Ab|--333333333/555555555/777777777/101010-9-9-9-----|
Db|-------------------------------------------------|

Chorus Guitar 2
Eb|-------------------------------------------------|
Bb|-------------------------------------------------|
Gb|--17-----------------------------------------16--|
Db|-------------------------------------------------|
Ab|-------------------------------------------------|
Db|-------------------------------------------------|
      ^--tremolo pick with wah and or phaser   ^--stop tremolo picking

Chorus Guitar 1
Eb|----------------------------------------------------------|
Bb|----------------------------------------------------------|
Gb|----------------------------------------------------------|
Db|--0-2--0-2--0-2--0-2p0-2h3-3-3--0-2--0-2--0-2--0-2p0-2h3--|
Ab|--0-2--0-2--0-2--0-2p0-2h3-3-3--0-2--0-2--0-2--0-2p0-2h3--|
Db|--0-2--0-2--0-2--0-2p0-2h3-3-3--0-2--0-2--0-2--0-2p0-2h3--|

Chorus Guitar 2 wah/phaser off
Eb|---------------------------0------------------------------|
Bb|---------------------------0------------------------------|
Gb|----------------------------------------------------------|
Db|--------------------------------0-2--0-2--0-2--0-2p0-2h3--|
Ab|--------------------------------0-2--0-2--0-2--0-2p0-2h3--|
Db|--------------------------------0-2--0-2--0-2--0-2p0-2h3--|

Chorus Cont. Guitar 1
Eb|-------------------------------------------------|
Bb|--------------------------------121212-101010----|
Gb|--555555555/777777777/999999999-x-x-x--x-x-x-----|
Db|--xxxxxxxxx/xxxxxxxxx/xxxxxxxxx-9-9-9--7-7-7-----|
Ab|--333333333/555555555/777777777------------------|
Db|-------------------------------------------------|

Chorus Guitar 2
Eb|-------------------------------------------------|
Bb|-------------------------------------------------|
Gb|--17-----------------------------------------16--|
Db|-------------------------------------------------|
Ab|-------------------------------------------------|
Db|-------------------------------------------------|
      ^--tremolo pick with wah and or phaser   ^--stop tremolo picking

Chorus Guitar 1
Eb|-----------------------------------------------|
Bb|-----------------------------------------------|
Gb|-----------------------------------------------|
Db|--0-2--0-2--0-2--0-2-3---0-2--0-2--0-2--0-2-3--|
Ab|--0-2--0-2--0-2--0-2-3---0-2--0-2--0-2--0-2-3--|
Db|--0-2--0-2--0-2--0-2-3---0-2--0-2--0-2--0-2-3--|

Chorus Guitar 2
Eb|-----------------------------------------------|
Bb|-----------------------------------------------|
Gb|-----------------------------------------------|
Db|-------------------------0-2--0-2--0-2--0-2-3--|
Ab|-------------------------0-2--0-2--0-2--0-2-3--|
Db|-------------------------0-2--0-2--0-2--0-2-3--|

End of Chorus Guitar 1
Eb|----------------------------------------|
Bb|----------------------------------------|
Gb|----------------------------------------|
Db|--0-2--0-2--0-2--0-2-3---2-2--2-2--2-2--|
Ab|--0-2--0-2--0-2--0-2-3---2-2--2-2--2-2--|
Db|--0-2--0-2--0-2--0-2-3---2-2--2-2--2-2--|

End of Chorus Guitar 2
Eb|----------------------------------------|
Bb|----------------------------------------|
Gb|----------------------------------------|
Db|--0-2--0-2--0-2--0-2-3---2-2--2-2--2-2--|
Ab|--0-2--0-2--0-2--0-2-3---2-2--2-2--2-2--|
Db|--0-2--0-2--0-2--0-2-3---2-2--2-2--2-2--|



09. Here We Are

Intro: Electric 00:00
 C|--3--------------------------------------------|
 G|--5------------------5---------------1---------|
Eb|--4------------------2-------------0-----------|
Bb|--2------------------2---------0-2-------------|
 F|---------------------0-------------------------|
Bb|-----------------------------------------------|

Acoustic: 00:00
 C|-----------------------------------------------|
 G|--8--8----8-8----------------------------------|
Eb|--9--9--9-9-9-9-9-9----------------------------|
Bb|--9--9--9-9-9-9-9-9--9--9--9-9-10-10-10-10-10--|
 F|--7--7--7-7-7-7-7-7--7--7--7-7-10-10-10-10-10--|
Bb|---------------------7--7--7-7-10-10-10-10-10--|

Electric: 00:07
 C|--3-------------------------------|
 G|--5------------------5------------|
Eb|--4------------------2-------5----|
Bb|--2------------------2-------5----|
 F|---------------------0-------3----|
Bb|----------------------------------|

Acoustic: 00:07
 C|---------------------------------|
 G|--8--8----8-8--------------------|
Eb|--9--9--9-9-9-9-9-9--------------|
Bb|--9--9--9-9-9-9-9-9--9--9--9-10--|
 F|--7--7--7-7-7-7-7-7--7--7--7-10--|
Bb|---------------------7--7--7-10--|

Verse: Electric 00:15
 C|--3--------------------------------------------|
 G|--5------------------5---------------1---------|
Eb|--4------------------2-------------0-----------|
Bb|--2------------------2---------0-2-------------|
 F|---------------------0-------------------------|
Bb|-----------------------------------------------|x3

Verse: Acoustic 00:15
 C|-----------------------------------------------|
 G|--8--8----8-8----------------------------------|
Eb|--9--9--9-9-9-9-9-9----------------------------|
Bb|--9--9--9-9-9-9-9-9--9--9--9-9-10-10-10-10-10--|
 F|--7--7--7-7-7-7-7-7--7--7--7-7-10-10-10-10-10--|
Bb|---------------------7--7--7-7-10-10-10-10-10--|x3

Electric: 00:37
 C|--3-------------------------------|
 G|--5------------------5------------|
Eb|--4------------------2-------5----|
Bb|--2------------------2-------5----|
 F|---------------------0-------3----|
Bb|----------------------------------|

Acoustic: 00:37
 C|---------------------------------|
 G|--8--8----8-8--------------------|
Eb|--9--9--9-9-9-9-9-9--------------|
Bb|--9--9--9-9-9-9-9-9--9--9--9-10--|
 F|--7--7--7-7-7-7-7-7--7--7--7-10--|
Bb|---------------------7--7--7-10--|

Chorus: 00:43 there is an acoustic playing with the electric
 C|----------------------------------------------------------|
 G|----------------------------------------------------------|
Eb|-------------------7-7-7-7-7-x8-9-9-9-9-9-----------------|
Bb|--xxxx-5-5-5-5-5-5-7-7-7-7-7-x8-9-9-9-9-9-7-7-7-7-10-x10--|
 F|--xxxx-5-5-5-5-5-5-5-5-5-5-5-x6-7-7-7-7-7-7-7-7-7-10-x10--|
Bb|--xxxx-5-5-5-5-5-5------------------------7-7-7-7-10-x10--|

Fill-in for Chorus: 00:43
 C|-------------------2----------------------------------------|
 G|-------8-----------3------------5------------------------1--|
Eb|-------7-----------2------------4---------2------------0----|
Bb|-------5-----------0------------2---------2--------0-2------|
 F|-------5----------------------------------0-----------------|
Bb|-------5----------------------------------------------------|

Chorus continued: 00:59
 C|-----------------------------------------------------|
 G|-----------------------------------------------------|
Eb|--------------7-7-7-7-7-x8-9-9-9-9-9-----------------|
Bb|--5-5-5-5-5-5-7-7-7-7-7-x8-9-9-9-9-9-7-7-7-7-10-x10--|
 F|--5-5-5-5-5-5-5-5-5-5-5-x6-7-7-7-7-7-7-7-7-7-10-x10--|
Bb|--5-5-5-5-5-5------------------------7-7-7-7-10-x10--|

Fill-in for Chorus: 00:59
 C|--------------2----------------------------------------|
 G|--8-----------3------------5------------------------1--|
Eb|--7-----------2------------4---------2------------0----|
Bb|--5-----------0------------2---------2--------0-2------|
 F|--5----------------------------------0-----------------|
Bb|--5----------------------------------------------------|

Electric at 01:13
 C|----------------------------|
 G|----------------------------|
Eb|-------------------------5--|
Bb|-------------------------5--|
 F|--2--x2-0-2-0-2-2-0-7-xx-3--|
Bb|--2--x2-0-2-0-2-2-0-7-xx----|

Verse 2: Electric 01:21
 C|--3--------------------------------------------|
 G|--5------------------5---------------1---------|
Eb|--4------------------2-------------0-----------|
Bb|--2------------------2---------0-2-------------|
 F|---------------------0-------------------------|
Bb|-----------------------------------------------|x2

Acoustic: 01:21
 C|-----------------------------------------------|
 G|--8--8----8-8----------------------------------|
Eb|--9--9--9-9-9-9-9-9----------------------------|
Bb|--9--9--9-9-9-9-9-9--9--9--9-9-10-10-10-10-10--|
 F|--7--7--7-7-7-7-7-7--7--7--7-7-10-10-10-10-10--|
Bb|---------------------7--7--7-7-10-10-10-10-10--|x2

Electric continued: 01:35
 C|--3--------3-----------------------------------|
 G|--5---------5--------5---------------1---------|
Eb|--4----------4-------2-------------0-----------|
Bb|--2------------------2---------0-2-------------|
 F|---------------------0-------------------------|
Bb|-----------------------------------------------|

Acoustic continued: 01:35
 C|-----------------------------------------------|
 G|--8--8----8-8----------------------------------|
Eb|--9--9--9-9-9-9-9-9----------------------------|
Bb|--9--9--9-9-9-9-9-9--9--9--9-9-10-10-10-10-10--|
 F|--7--7--7-7-7-7-7-7--7--7--7-7-10-10-10-10-10--|
Bb|---------------------7--7--7-7-10-10-10-10-10--|

Electric continued: 01:43
 C|--3------------------------------|
 G|--5--5-5--5-5-5--5--5-5-5-5-5-5--|
Eb|--4------4------4---2-------5----|
Bb|--2-----------------2-------5----|
 F|--------------------0-------3----|
Bb|---------------------------------|

Acoustic continued: 01:43
 C|---------------------------------|
 G|--8--8----8-8--------------------|
Eb|--9--9--9-9-9-9-9-9--------------|
Bb|--9--9--9-9-9-9-9-9--9--9--9-10--|
 F|--7--7--7-7-7-7-7-7--7--7--7-10--|
Bb|---------------------7--7--7-10--|

Chorus: 01:49 there is an acoustic playing with the electric
 C|----------------------------------------------------------|
 G|----------------------------------------------------------|
Eb|-------------------7-7-7-7-7-x8-9-9-9-9-9-----------------|
Bb|--xxxx-5-5-5-5-5-5-7-7-7-7-7-x8-9-9-9-9-9-7-7-7-7-10-x10--|
 F|--xxxx-5-5-5-5-5-5-5-5-5-5-5-x6-7-7-7-7-7-7-7-7-7-10-x10--|
Bb|--xxxx-5-5-5-5-5-5------------------------7-7-7-7-10-x10--|

Fill-in for Chorus: 01:49
 C|-------------------2----------------------------------------|
 G|-------8-----------3------------5------------------------1--|
Eb|-------7-----------2------------4---------2------------0----|
Bb|-------5-----------0------------2---------2--------0-2------|
 F|-------5----------------------------------0-----------------|
Bb|-------5----------------------------------------------------|

Chorus continued: 02:05
 C|-----------------------------------------------------|
 G|-----------------------------------------------------|
Eb|--------------7-7-7-7-7-x8-9-9-9-9-9-----------------|
Bb|--5-5-5-5-5-5-7-7-7-7-7-x8-9-9-9-9-9-7-7-7-7-10-x10--|
 F|--5-5-5-5-5-5-5-5-5-5-5-x6-7-7-7-7-7-7-7-7-7-10-x10--|
Bb|--5-5-5-5-5-5------------------------7-7-7-7-10-x10--|

Fill-in for Chorus: 02:05
 C|--------------2----------------------------------------|
 G|--8-----------3------------5------------------------1--|
Eb|--7-----------2------------4---------2------------0----|
Bb|--5-----------0------------2---------2--------0-2------|
 F|--5----------------------------------0-----------------|
Bb|--5----------------------------------------------------|

Bridge: 02:19 (acoustic struming with eletric)
 C|---------------------|
 G|---------------------|
Eb|---------------------|
Bb|---------------------|
 F|--9~~~~~~~~~~~~~~~3~~|
Bb|--9~~~~~~~~~~~~~~~3~~|

fill-in for 02:19
 C|--------------------|
 G|---0-0-0-0-1-1-1-1--|
Eb|--------------------|
Bb|--2-2-2-2-2-2-2-2---|
 F|--------------------|
Bb|--------------------|

Bridge: 02:27 both guitars(acoustic struming)
 C|--------------------------------------------|
 G|--------------------------------------------|
Eb|--5~~~~~~~~~~~~~~~--------------------------|
Bb|--5~~~~~~~~~~~~~~~7~~~~~~~~~~~~~~~5~~~~3~~~~|
 F|--3~~~~~~~~~~~~~~~7~~~~~~~~~~~~~~~5~~~~3~~~~|
Bb|------------------7~~~~~~~~~~~~~~~5~~~~3~~~~|

Fill-in guitar for 02:27
 C|-----------------------------------------------|
 G|-----------------------------------------------|
Eb|---0-0-0-0-0--2-2-2-2-2--0-0-0-0-0--2-2-2-2-2--|
Bb|--2-2-2-2-2--2-2-2-2-2--0-0-0-0-0--0-0-0-0-0---|
 F|-----------------------------------------------|
Bb|-----------------------------------------------|

both guitars(acoustic struming) 02:41
 C|-------------------------------------------------|
 G|-------------------------------------------------|
Eb|--5~~~~~~~~~~~~~~~-------------------------------|
Bb|--5~~~~~~~~~~~~~~~7~~~~~~~~~~~~~~~5~~~~3~~~~2~~~~|
 F|--3~~~~~~~~~~~~~~~7~~~~~~~~~~~~~~~5~~~~3~~~~2~~~~|
Bb|------------------7~~~~~~~~~~~~~~~5~~~~3~~~~2~~~~|

Fill-in guitar for 02:41
 C|--------------------------------------------------|
 G|-----------------------------------------------5--|
Eb|---0-0-0-0-0--2-2-2-2-2--0-0-0-0-0--2-2-2-2-2--4--|
Bb|--2-2-2-2-2--2-2-2-2-2--0-0-0-0-0--0-0-0-0-0---2--|
 F|--------------------------------------------------|
Bb|--------------------------------------------------|

Solo: 02:58
 C|---------------------------------17----------------------12-14-15~~|
 G|---------------------------------------------------12-15-----------|
Eb|--------12-14-14brbrb-14-12----12---14brb----12brb-----------------|
Bb|--12/14---------------------14------------14-----------------------|
 F|-------------------------------------------------------------------|
Bb|-------------------------------------------------------------------|

Solo continued: 03:06
 C|--14brb-12-10-12-12--12/14-14-14/15-15-15/17-19-19~~~~19---17~~17--|
 G|---------------------------------------------------------17--------|
Eb|-------------------------------------------------------------------|
Bb|-------------------------------------------------------------------|
 F|-------------------------------------------------------------------|
Bb|-------------------------------------------------------------------|

Solo continued: 03:21
 C|--15\12-12b-12brb12brb12brb--------10--------------10h12-10h12-14-15--|
 G|---------------------------10h12-10--10-12brb-10h12-------------------|
Eb|----------------------------------------------------------------------|
Bb|----------------------------------------------------------------------|
 F|----------------------------------------------------------------------|
Bb|----------------------------------------------------------------------|

Fill-in for Solo: acoustic 03:00
 C|-----------------------------------------------------|
 G|-----------------------------------------------------|
Eb|--------------7-7-7-7-7-x8-9-9-9-9-9-----------------|
Bb|--5-5-5-5-5-5-7-7-7-7-7-x8-9-9-9-9-9-7-7-7-7-10-x10--|
 F|--5-5-5-5-5-5-5-5-5-5-5-x6-7-7-7-7-7-7-7-7-7-10-x10--|
Bb|--5-5-5-5-5-5------------------------7-7-7-7-10-x10--|

Fill-in: Eletric 03:00
 C|--------------2----------------------------------------|
 G|--8-----------3------------5------------------------1--|
Eb|--7-----------2------------4---------2------------0----|
Bb|--5-----------0------------2---------2--------0-2------|
 F|--5----------------------------------0-----------------|
Bb|--5----------------------------------------------------|

Acoustic continued: 03:14
 C|-----------------------------------------------------|
 G|-----------------------------------------------------|
Eb|--------------7-7-7-7-7-x8-9-9-9-9-9-----------------|
Bb|--5-5-5-5-5-5-7-7-7-7-7-x8-9-9-9-9-9-7-7-7-7-10-x10--|
 F|--5-5-5-5-5-5-5-5-5-5-5-x6-7-7-7-7-7-7-7-7-7-10-x10--|
Bb|--5-5-5-5-5-5------------------------7-7-7-7-10-x10--|

Eletric continued: 03:14
 C|--------------2-3-2------------------------------------|
 G|--8-----------3------------5------------------------1--|
Eb|--7-----------2------------4---------2------------0----|
Bb|--5-----------0------------2---------2--------0-2------|
 F|--5----------------------------------0-----------------|
Bb|--5----------------------------------------------------|

Chorus: 03:28 there is an acoustic playing with the electric
 C|----------------------------------------------------------|
 G|----------------------------------------------------------|
Eb|-------------------7-7-7-7-7-x8-9-9-9-9-9-----------------|
Bb|--xxxx-5-5-5-5-5-5-7-7-7-7-7-x8-9-9-9-9-9-7-7-7-7-10-x10--|
 F|--xxxx-5-5-5-5-5-5-5-5-5-5-5-x6-7-7-7-7-7-7-7-7-7-10-x10--|
Bb|--xxxx-5-5-5-5-5-5------------------------7-7-7-7-10-x10--|

Fill-in for Chorus: 03:28
 C|-------------------2----------------------------------------|
 G|-------8-----------3------------5------------------------1--|
Eb|-------7-----------2------------4---------2------------0----|
Bb|-------5-----------0------------2---------2--------0-2------|
 F|-------5----------------------------------0-----------------|
Bb|-------5----------------------------------------------------|

Chorus continued: 03:44
 C|-----------------------------------------------------|
 G|-----------------------------------------------------|
Eb|--------------7-7-7-7-7-x8-9-9-9-9-9-----------------|
Bb|--5-5-5-5-5-5-7-7-7-7-7-x8-9-9-9-9-9-7-7-7-7-10-x10--|
 F|--5-5-5-5-5-5-5-5-5-5-5-x6-7-7-7-7-7-7-7-7-7-10-x10--|
Bb|--5-5-5-5-5-5------------------------7-7-7-7-10-x10--|

Fill-in for Chorus continued: 03:44
 C|--------------2-2--2---------------------------------|
 G|--8--8--8--8--3------------5-5--5--5---5---5------5--|
Eb|--7-----------2------------4---------2----------4----|
Bb|--5-----------0------------2---------2--------0------|
 F|--5----------------------------------0---------------|
Bb|--5--------------------------------------------------|

Outro: 03:58
 C|--------------------------------|
 G|--------------------------------|
Eb|--------------------------------|
Bb|--5-5-5-5-5-5-7-7-7-7-10-x10-5--|
 F|--5-5-5-5-5-5-7-7-7-7-10-x10-5--|
Bb|--5-5-5-5-5-5-7-7-7-7-10-x10-5--|

Fill-in for Outro: 03:58
 C|--------------2--2---------------|
 G|--8--8--8--8--3---------------8--|
Eb|--7-----------2---------------7--|
Bb|--5-----------0---------------5--|
 F|--5---------------------------5--|
Bb|--5---------------------------5--|



10. Unknown Soldier

Intro guitar 1: 00:07
D|-----------------------------------------------|
A|-----------------------------------------------|
F|-----------------------------------------------|
C|--8-8-8-8----8-8-8-8----0-0-0-0----0-0-0--5-5--|
G|--8-8-8-8----8-8-8-8----0-0-0-0----0-0-0--3-3--|
C|--8-8-8-8----8-8-8-8----0-0-0-0----0-0-0-------|x2

guitar 2: 00:07
D|------5----------5----------5----------5--6-5--|
A|--6-8---5-6--6-8---5-6--6-8---5-6--6-8---------|
F|--------5-7--------5-7--------5-7--------------|
C|-----------------------------------------------|
G|-----------------------------------------------|
C|-----------------------------------------------|x2

Verse 1 guitar 1: 00:23
D|----------------------------------------------------------------|
A|----------------------------------------------------------------|
F|----------------------------------------------------------------|
C|--0----5----8----1----0----5----8----1----0----5----8----1------|
G|--0----5----8----1----0----5----8----1----0----5----8----1------|
C|--0----5----8----1----0----5----8----1----0----5----8----1------|

Verse 1 guitar 2: 00:25
D|---------------------------------------------10---10---10---11--|
A|---------3----3----4----3----3----3----4---10---10---10---10----|
F|--------2----2----2----2----2----2----2-------------------------|
C|----------------------------------------------------------------|
G|----------------------------------------------------------------|
C|----------------------------------------------------------------|

Chorus guitar 1: 00:47 *play 2 times*
D|------------------------------------------------------|
A|------------------------------------------------------|
F|------------------------------------------------------|
C|--3--3--3-3----3--3--3-3----7--7--7-7----7--7--7-7----|
G|--3--3--3-3----3--3--3-3----7--7--7-7----7--7--7-7----|
C|--3--3--3-3----3--3--3-3----7--7--7-7----7--7--7-7----|

Chorus guitar 2: 00:47
D|------8------------8------------8------------8--------|
A|--6-h8---5-/6--6-h8---5-/6--6-h8---5-/6--6-h8---5-/6--|
F|------------------------------------------------------|
C|------------------------------------------------------|
G|------------------------------------------------------|
C|------------------------------------------------------|

Chorus Guitar 1: 00:55
D|------------------------------------------------------|
A|------------------------------------------------------|
F|------------------------------------------------------|
C|--8--8--8-8----8--8--8-8----3--3--3-3----3--3--3-3----|
G|--8--8--8-8----8--8--8-8----3--3--3-3----3--3--3-3----|
C|--8--8--8-8----8--8--8-8----3--3--3-3----3--3--3-3----|

Chorus guitar 2: 00:55
D|------8------------8------------8------------8--------|
A|--6-h8---5-/6--6-h8---5-/6--6-h8---5-/6--6-h8---5-/6--|
F|------------------------------------------------------|
C|------------------------------------------------------|
G|------------------------------------------------------|
C|------------------------------------------------------|

guitar 1: 01:03
D|-----------------------------------------------|
A|-----------------------------------------------|
F|-----------------------------------------------|
C|--8----------8-8-8-8----0-0-0-0----0-0-0--5-5--|
G|--8----------8-8-8-8----0-0-0-0----0-0-0--3-3--|
C|--8----------8-8-8-8----0-0-0-0----0-0-0-------|

guitar 2: 01:03
D|------5----------5----------5----------5--6-5--|
A|--6-8---5-6--6-8---5-6--6-8---5-6--6-8---------|
F|--------5-7--------5-7--------5-7--------------|
C|-----------------------------------------------|
G|-----------------------------------------------|
C|-----------------------------------------------|

Guitar 1: 01:10
D|-----------------------------------------------|
A|-----------------------------------------------|
F|-----------------------------------------------|
C|--8-8-8-8----8-8-8-8----0-0-0-0----0-0-0--5-5--|
G|--8-8-8-8----8-8-8-8----0-0-0-0----0-0-0--3-3--|
C|--8-8-8-8----8-8-8-8----0-0-0-0----0-0-0-------|

guitar 2: 01:10
D|------5----------5----------5----------5--6-5--|
A|--6-8---5-6--6-8---5-6--6-8---5-6--6-8---------|
F|--------5-7--------5-7--------5-7--------------|
C|-----------------------------------------------|
G|-----------------------------------------------|
C|-----------------------------------------------|

Verse 2 guitar 1: 01:18
D|----------------------------------------------------------------|
A|----------------------------------------------------------------|
F|----------------------------------------------------------------|
C|--0----5----8----1----0----5----8----1----0----5----8----1------|
G|--0----5----8----1----0----5----8----1----0----5----8----1------|
C|--0----5----8----1----0----5----8----1----0----5----8----1------|

Verse 2 guitar 2: 01:18
D|---------------------------------------------10---10---10---11--|
A|----3----3----3----4----3----3----3----4---10---10---10---10----|
F|---2----2----2----2----2----2----2----2-------------------------|
C|----------------------------------------------------------------|
G|----------------------------------------------------------------|
C|----------------------------------------------------------------|

Chorus guitar 1: 01:42/01:58 *play 2 times*
D|------------------------------------------------------|
A|------------------------------------------------------|
F|------------------------------------------------------|
C|--3--3--3-3----3--3--3-3----7--7--7-7----7--7--7-7----|
G|--3--3--3-3----3--3--3-3----7--7--7-7----7--7--7-7----|
C|--3--3--3-3----3--3--3-3----7--7--7-7----7--7--7-7----|

Chorus guitar 2: 01:42/01:58
D|------8------------8------------8------------8--------|
A|--6-h8---5-/6--6-h8---5-/6--6-h8---5-/6--6-h8---5-/6--|
F|------------------------------------------------------|
C|------------------------------------------------------|
G|------------------------------------------------------|
C|------------------------------------------------------|

Chorus Guitar 1: 01:50/02:05
D|------------------------------------------------------|
A|------------------------------------------------------|
F|------------------------------------------------------|
C|--8--8--8-8----8--8--8-8----3--3--3-3----3--3--3-3----|
G|--8--8--8-8----8--8--8-8----3--3--3-3----3--3--3-3----|
C|--8--8--8-8----8--8--8-8----3--3--3-3----3--3--3-3----|

Chorus guitar 2: 01:50/02:05
D|------8------------8------------8------------8--------|
A|--6-h8---5-/6--6-h8---5-/6--6-h8---5-/6--6-h8---5-/6--|
F|------------------------------------------------------|
C|------------------------------------------------------|
G|------------------------------------------------------|
C|------------------------------------------------------|

Bridge guitar 2: 02:15 with Delay
D|---------------------------------------10----------------------|
A|------10-----8-----11-----10-----10-----------10-----8-----11--|
F|--(7)-----7-----7------7------7------7-----7------7-----7------|
C|---------------------------------------------------------------|
G|---------------------------------------------------------------|
C|---------------------------------------------------------------|

Guitar 1: 02:14 Distorted with feed back Feedback
D|---------------------------------------------------------------|
A|---------------------------------------------------------------|
F|--7------------------------------------------------------------|
C|--0------------------------------------------------------------|
G|--8------------------------------------------------------------|
C|---------------------------------------------------------------|

Guitar 2 continued: 02:25 with Delay
D|------------------------10----10----10---------10----12----10-----|
A|-----10-----10-----8-------10----10----10-8-10----10----10--------|
F|--7------7------7-----7-------------------------------------------|
C|------------------------------------------------------------------|
G|------------------------------------------------------------------|
C|------------------------------------------------------------------|

Guitar 1: 02:37 with feedback
D|--------------------------------------------------------------13--|
A|------------------------------------------------------------------|
F|------------------------------------------------------------------|
C|------------------------------------------------------------------|
G|-------------------------------------------------3/5~~/7~/8~~-----|
C|------------------------------------------------------------------|

guitar 1: 02:44
D|------------------------------------------------------|
A|------------------------------------------------------|
F|------------------------------------------------------|
C|--3--3--3--3---3--3--3--3---7--7--7--7---7--7--7--7---|
G|--3--3--3--3---3--3--3--3---7--7--7--7---7--7--7--7---|
C|--3--3--3--3---3--3--3--3---7--7--7--7---7--7--7--7---|

Solo guitar 2: 02:45
D|------------------------------------------------------|
A|-----------13-----------13-----------13-----------13--|
F|--9brb9/10-----9brb9/10-----9brb9/10-----9brb9/10-----|
C|------------------------------------------------------|
G|------------------------------------------------------|
C|------------------------------------------------------|

Guitar 1 cont. 02:53
D|-------------------------------------------------------------------|
A|-------------------------------------------------------------------|
F|-------------------------------------------------------------------|
C|--8--8---8---8--8---8---8--8---8---8--8---3--3---3---5--5---5------|
G|--8--8---8---8--8---8---8--8---8---8--8---3--3---3---3--3---3------|
C|--8--8---8---8--8---8---8--8---8---8--8---3--3---3---3--3---3------|

Solo cont. Guitar 2 02:53
D|----------------------------------------------------8--------------|
A|--10-8-10-10brb-8---10-8-10-10brb-8---------8---8-------8---8------|
F|-----------------------------------------10--10--10--10--10--10-9--|
C|-------------------------------------------------------------------|
G|-------------------------------------------------------------------|
C|-------------------------------------------------------------------|

Chorus guitar 1: 03:01/03:16
D|------------------------------------------------------|
A|------------------------------------------------------|
F|------------------------------------------------------|
C|--3--3--3-3----3--3--3-3----7--7--7-7----7--7--7-7----|
G|--3--3--3-3----3--3--3-3----7--7--7-7----7--7--7-7----|
C|--3--3--3-3----3--3--3-3----7--7--7-7----7--7--7-7----|

Chorus guitar 2: 03:01/03:16
D|------8------------8------------8------------8--------|
A|--6-h8---5-/6--6-h8---5-/6--6-h8---5-/6--6-h8---5-/6--|
F|------------------------------------------------------|
C|------------------------------------------------------|
G|------------------------------------------------------|
C|------------------------------------------------------|

Chorus Guitar 1: 03:09/03:24
D|------------------------------------------------------|
A|------------------------------------------------------|
F|------------------------------------------------------|
C|--8--8--8-8----8--8--8-8----3--3--3-3----3--3--3-3----|
G|--8--8--8-8----8--8--8-8----3--3--3-3----3--3--3-3----|
C|--8--8--8-8----8--8--8-8----3--3--3-3----3--3--3-3----|

Chorus guitar 2: 03:09/03:24
D|------8------------8------------8------------8--------|
A|--6-h8---5-/6--6-h8---5-/6--6-h8---5-/6--6-h8---5-/6--|
F|------------------------------------------------------|
C|------------------------------------------------------|
G|------------------------------------------------------|
C|------------------------------------------------------|

guitar 2 continued: 03:32
D|------8-----------------------------------------------|
A|--6-h8------------------------------------------------|
F|------------------------------------------------------|
C|------------------------------------------------------|
G|------------------------------------------------------|
C|------------------------------------------------------|

guitar 1: 03:32
D|------------------------------------------------------|
A|------------------------------------------------------|
F|------------------------------------------------------|
C|--3---------------------------------------------------|
G|--3---------------------------------------------------|
C|--3---------------------------------------------------|



11. Had Enough

Intro Guitar 1 (Ben) *play once*
 C|---------------------------------------------------------------|
 G|---------------------------------------------------------------|
Eb|---------------------------------------------------------------|
Bb|--2--0-2p0-2---0-2p0--5-5-4-0---2--0-2p0-2---0-2p0--5-5-4-0----|
 F|--2--0-2p0-2---0-2p0--5-5-4-0---2--0-2p0-2---0-2p0--5-5-4-0----|
Bb|--2--0-2p0-2---0-2p0--5-5-4-0---2--0-2p0-2---0-2p0--5-5-4-0----|

Ben Guitar 1 Cont. *play once*
 C|----------------------------------------------------------------|
 G|---------------------------------------------------15-15-15-15--|
Eb|--------------------16-16-16-16--------------------16-16-16-16--|
Bb|--10-10-10h12-1010---x--x--x--x--10-10-10h12-1010---x--x--x--x--|
 F|--10-10-10h12-1010--14-14-14-14--10-10-10h12-1010--14-14-14-14--|
Bb|--10-10-10h12-1010---------------10-10-10h12-1010---------------|

Guitar 2 (Aaron) *play 2 times*                                   --|
 C|---------------------------------------------------------------| |
 G|---------------------------------------------------------------| |
Eb|---------------------------------------------------------------| |
Bb|--2--0-2p0-2---0-2p0--5-5-4-0---2--0-2p0-2---0-2p0--5-5-4-0----| |
 F|--2--0-2p0-2---0-2p0--5-5-4-0---2--0-2p0-2---0-2p0--5-5-4-0----| |
Bb|--2--0-2p0-2---0-2p0--5-5-4-0---2--0-2p0-2---0-2p0--5-5-4-0----| |
                                                                    |
Aaron Guitar 2 cont.                                                |
 C|----------------------------------------------------------------||
 G|---------------------------------------------------15-15-15-15--||
Eb|--------------------16-16-16-16--------------------16-16-16-16--||
Bb|--10-10-10h12-1010---x--x--x--x--10-10-10h12-1010---x--x--x--x--||
 F|--10-10-10h12-1010--14-14-14-14--10-10-10h12-1010--14-14-14-14--||
Bb|--10-10-10h12-1010---------------10-10-10h12-1010---------------||
                                                                  --|
Guitar 1 after 1st time
 C|---------------------------------------------------------------|
 G|--555--------888--777--55--------555--------888--777--55-------|
Eb|-------777-----------------77---------777-----------------77---|
Bb|---------------------------------------------------------------|
 F|---------------------------------------------------------------|
Bb|---------------------------------------------------------------|

Verse 1 Guitar 1
 C|-----------------------------------------|
 G|-----------------------------------------|
Eb|--9------------9--12---------------------|
Bb|--9------------9--12--10-----------10-9--|
 F|--7------------7--10--10-----------10-9--|
Bb|----------------------10-----------10-9--|

Verse 1 Guitar 2
 C|-(0)-(0)--(0)--(0)-----(0)-(0)-----------|
 G|--5---8---10---12-------5---3---(0)------|
Eb|---------------------------------4-------|
Bb|-----------------------------------------|
 F|-----------------------------------------|
Bb|-----------------------------------------|
    |---------Tremolo Pick---------|

Verse 1 Guitar 1 cont.
 C|-----------------------------------------------------|
 G|-----------------------------------------------------|
Eb|--9------------9-12---------------------9------------|
Bb|--9------------9-12--10------------10-9-9------------|
 F|--7------------7-10--10------------10-9-7------------|
Bb|---------------------10------------10-9--------------|

Verse 1 Guitar 2 cont.
 C|-(0)-(0)--(0)--(0)-----(0)-(0)-----------------------|
 G|--5---8---10---12-------5---3---(0)----------3/5555--|
Eb|---------------------------------4-------------------|
Bb|-----------------------------------------------------|
 F|-----------------------------------------------------|
Bb|-----------------------------------------------------|
    |---------Tremolo Pick---------|

Chorus Guitars 1 and 2 *play 2 times*
 C|-----------------------------------------------------------------|
 G|-----------------------------------------------------------------|
Eb|------------4--4-4-4--5-5-----5--5-5-5------------4--4-4-4-------|
Bb|--2--2-2-2--4--4-4-4--5-5-x-x-5--5-5-5--5--5-5-5--4--4-4-4-x--0--|
 F|--2--2-2-2--2--2-2-2--3-3-x-x-3--3-3-3--5--5-5-5--2--2-2-2-x--0--|
Bb|--2--2-2-2----------------x-x-----------5--5-5-5-----------x--0--|

Retro Guitar 2 (Aaron)
 C|---------------------------------------------------------------|
 G|---------------------------------------------------------------|
Eb|---------------------------------------------------------------|
Bb|--2--0-2p0-2---0-2p0--5-5-4-0---2--0-2p0-2---0-2p0--5-5-4-0----|
 F|--2--0-2p0-2---0-2p0--5-5-4-0---2--0-2p0-2---0-2p0--5-5-4-0----|
Bb|--2--0-2p0-2---0-2p0--5-5-4-0---2--0-2p0-2---0-2p0--5-5-4-0----|

 C|----------------------------------------------------------------|
 G|---------------------------------------------------15-15-15-15--|
Eb|--------------------16-16-16-16--------------------16-16-16-16--|
Bb|--10-10-10h12-1010---x--x--x--x--10-10-10h12-1010---x--x--x--x--|
 F|--10-10-10h12-1010--14-14-14-14--10-10-10h12-1010--14-14-14-14--|
Bb|--10-10-10h12-1010---------------10-10-10h12-1010---------------|

Retro Guitar 1 (Ben)
 C|---------------------------------------------------------------|
 G|--555--------888--777--55--------555--------888--777--55-------|
Eb|-------777-----------------77---------777-----------------77---|
Bb|---------------------------------------------------------------|
 F|---------------------------------------------------------------|
Bb|---------------------------------------------------------------|

Guitar 1 Cont.
 C|----------------------------------------------------------------|
 G|---------------------------------------------------15-15-15-15--|
Eb|--------------------16-16-16-16--------------------16-16-16-16--|
Bb|--10-10-10h12-1010---x--x--x--x--10-10-10h12-1010---x--x--x--x--|
 F|--10-10-10h12-1010--14-14-14-14--10-10-10h12-1010--14-14-14-14--|
Bb|--10-10-10h12-1010---------------10-10-10h12-1010---------------|

Verse 2 Guitar 1
 C|-----------------------------------------|
 G|-----------------------------------------|
Eb|--9------------9-12----------------------|
Bb|--9------------9-12--10------------10-9--|
 F|--7------------7-10--10------------10-9--|
Bb|---------------------10------------10-9--|

Verse 2 Guitar 2
 C|-(0)-(0)--(0)--(0)-----(0)-(0)-----------|
 G|--5---8---10---12-------5---3---(0)------|
Eb|---------------------------------4-------|
Bb|-----------------------------------------|
 F|-----------------------------------------|
Bb|-----------------------------------------|
    |---------Tremolo Pick---------|

Verse 2 Guitar 1 cont.
 C|-----------------------------------------------------|
 G|-----------------------------------------------------|
Eb|--9------------9-12---------------------9------------|
Bb|--9------------9-12--10------------10-9-9------------|
 F|--7------------7-10--10------------10-9-7------------|
Bb|---------------------10------------10-9--------------|

Verse 2 Guitar 2 cont.
 C|-(0)-(0)--(0)--(0)-----(0)-(0)-----------------------|
 G|--5---8---10---12-------5---3---(0)----------3/5555--|
Eb|---------------------------------4-------------------|
Bb|-----------------------------------------------------|
 F|-----------------------------------------------------|
Bb|-----------------------------------------------------|
    |---------Tremolo Pick---------|

Chorus Guitar 1
 C|-----------------------------------------------------------------|
 G|-----------------------------------------------------------------|
Eb|------------4--4-4-4--5-5-----5--5-5-5------------4--4-4-4-------|
Bb|--2--2-2-2--4--4-4-4--5-5-x-x-5--5-5-5--5--5-5-5--4--4-4-4-x--0--|
 F|--2--2-2-2--2--2-2-2--3-3-x-x-3--3-3-3--5--5-5-5--2--2-2-2-x--0--|
Bb|--2--2-2-2----------------x-x-----------5--5-5-5-----------x--0--|

Chorus Guitar 2
 C|-----------------------------------------------------------------|
 G|-----------------------------------------------------------------|
Eb|-----------------------------------------------------------------|
Bb|------9-10--9-------------x-x-----------12-12--------------x-----|
 F|--7---------9---9--12--10-x-x-10------------------10--10---x--9--|
Bb|--------------------------x-x------------------------------x-----|

Guitar 1 (Ben)
 C|--------------------------------------------------------|
 G|--------------------------------------------------------|
Eb|------------4--4-4-4--5-5-----5--5-5-5------------------|
Bb|--2--2-2-2--4--4-4-4--5-5-x-x-5--5-5-5--5--5-5-5--4--0--|
 F|--2--2-2-2--2--2-2-2--3-3-x-x-3--3-3-3--5--5-5-5--5--0--|
Bb|--2--2-2-2----------------x-x-----------5--5-5-5--4--0--|

Guitar 1 (Aaron)
 C|--------------------------------------------------------|
 G|--------------------------------------------------------|
Eb|--------------------------------------------------------|
Bb|------9--10-12------------x-x-----------12-12-----------|
 F|--7--------------9--12-10-x-x-10------------------10-9--|
Bb|--------------------------x-x---------------------------|

Bridge Guitars 1 and 2 *played once*
 C|-(0)----------------------------------------------------|
 G|--5-----------------------------------------------------|
Eb|--4------------4-----------5----------------------------|
Bb|--2------------4-----------5-----------5----------4-p0--|
 F|--2------------2-----------3-----------5----------5-p0--|
Bb|--2------------------------------------5----------4-p0--|

Bridge Guitar 1 *played 3 times*
 C|-----------------------------------------|
 G|-----------------------------------------|
Eb|-----------4--------5--------------------|
Bb|--2--------4--------5---------5------4---|
 F|--2--------2--------3---------5------5---|
Bb|--2---------------------------5------4---|

Bridge Guitar 2 cont. *played 2 times*
 C|-----------------------------------------|
 G|---0----0----0---0----0----0--3-0-----0--|
Eb|------0--------2----0----5-----------2---|
Bb|--2---------4----------------------------|
 F|-----------------------------------------|
Bb|-----------------------------------------|

Bridge Guitar 2 Cont. *played after 2nd time*
 C|--------0--------------------------------|
 G|---0---------0---0----0----0--3-0-----0--|
Eb|------0--------2----0----5-----------2---|
Bb|--2---------4----------------------------|
 F|-----------------------------------------|
Bb|-----------------------------------------|

Bridge Guitar 1 cont. *played after 3rd time*
 C|-----------------------------|
 G|-----------------------------|
Eb|------------4-------5--------|
Bb|--2---------4-------5--------|
 F|--2---------2-------3--------|
Bb|--2--------------------------|

Bridge Guitar 2 cont. *played after 3rd time*
 C|--------0-----------0--------|
 G|---0---------0---0--5--------|
Eb|------0--------2----5--------|
Bb|--2---------4-------5--------|
 F|-----------------------------|
Bb|-----------------------------|

Chorus Guitar 1 *play 2 times*
 C|-----------------------------------------------------------------|
 G|-----------------------------------------------------------------|
Eb|------------4--4-4-4--5-5-----5--5-5-5------------4--4-4-4-------|
Bb|--2--2-2-2--4--4-4-4--5-5-x-x-5--5-5-5--5--5-5-5--4--4-4-4-x--0--|
 F|--2--2-2-2--2--2-2-2--3-3-x-x-3--3-3-3--5--5-5-5--2--2-2-2-x--0--|
Bb|--2--2-2-2----------------x-x-----------5--5-5-5-----------x--0--|

Chorus Guitar 2 *played 2 times*
 C|--19-------------------17-19-------------------17--|
 G|------20--17--20-17h20--------20--17--20-17h20-----|
Eb|---------------------------------------------------|
Bb|---------------------------------------------------|
 F|---------------------------------------------------|
Bb|---------------------------------------------------|

 C|--19------------------17-19-19-19-19--17-17-17-17--|
 G|-----20--17--20-17h20------------------------------|
Eb|---------------------------------------------------|
Bb|---------------------------------------------------|
 F|---------------------------------------------------|
Bb|---------------------------------------------------|

Outro Guitar 2 (Aaron) *play 2 times*                             --|
 C|---------------------------------------------------------------| |
 G|---------------------------------------------------------------| |
Eb|---------------------------------------------------------------| |
Bb|--2--0-2p0-2---0-2p0--5-5-4-0---2--0-2p0-2---0-2p0--5-5-4-0----| |
 F|--2--0-2p0-2---0-2p0--5-5-4-0---2--0-2p0-2---0-2p0--5-5-4-0----| |
Bb|--2--0-2p0-2---0-2p0--5-5-4-0---2--0-2p0-2---0-2p0--5-5-4-0----| |
                                                                    |
 C|----------------------------------------------------------------||
 G|---------------------------------------------------15-15-15-15--||
Eb|--------------------16-16-16-16--------------------16-16-16-16--||
Bb|--10-10-10h12-1010---x--x--x--x--10-10-10h12-1010---x--x--x--x--||
 F|--10-10-10h12-1010--14-14-14-14--10-10-10h12-1010--14-14-14-14--||
Bb|--10-10-10h12-1010---------------10-10-10h12-1010---------------||
                                                                  --|

Outro Guitar 1 *played 2 times*                                   --|
 C|---------------------------------------------------------------| |
 G|--555--------888--777--55--------555--------888--777--55-------| |
Eb|-------777-----------------77---------777-----------------77---| |
Bb|---------------------------------------------------------------| |
 F|---------------------------------------------------------------| |
Bb|---------------------------------------------------------------| |
                                                                    |
 C|----------------------------------------------------------------||
 G|---------------------------------------------------15-15-15-15--||
Eb|--------------------16-16-16-16--------------------16-16-16-16--||
Bb|--10-10-10h12-1010---x--x--x--x--10-10-10h12-1010---x--x--x--x--||
 F|--10-10-10h12-1010--14-14-14-14--10-10-10h12-1010--14-14-14-14--||
Bb|--10-10-10h12-1010---------------10-10-10h12-1010---------------||
                                                                  --|

Guitars 1 and 2
 C|----------------------------------------------------------------|
 G|----------------------------------------------------------------|
Eb|----------------------------------------------------------------|
Bb|--2-------------------------------------------------------------|
 F|--2-------------------------------------------------------------|
Bb|--2-------------------------------------------------------------|



12. You Fight Me

Bass Intro: 00:00
 C|--------------|
 G|--------------|
Eb|--------------|
Bb|--------------|
 F|--------------|
Bb|--2-0-2-0--0--|x4

Piano: 00:02
 C|--------------------22----|
 G|------15-12----17-20--19--|
Eb|----12--------------------|
Bb|--14----------------------|
 F|--------------------------|
Bb|--------------------------|

Piano: 00:12
 C|--------------------------|
 G|------15-12--------15-----|
Eb|----12-----------12--11---|
Bb|--14-----------14---(14)--|
 F|--------------------------|
Bb|--------------------------|

Guitar 1: 00:13
 C|---------|
 G|--5~/17--|
Eb|---------|
Bb|---------|
 F|---------|
Bb|---------|x6

Piano: 00:26
 C|---------------------14----|
 G|-----------------------15--|
Eb|----12/14-11-------12------|
Bb|--14-------------14--------|
 F|---------------------------|
Bb|---------------------------|

Guitar 2: 00:17
 C|-----------------------|
 G|-----------------------|
Eb|-----------------------|
Bb|--2-0-2--0-0--xxxx-----|
 F|--2-0-2--0-0--xxxx-----|
Bb|--2-0-2--0-0--xxxx-----|x6

Piano: 00:39
 C|------------------------------|
 G|------------------------------|
Eb|--12-14p12-11------12--12-11--|
Bb|--14-------12----14--14-------|
 F|------------------------------|
Bb|------------------------------|

Verse/Pre-Chorus: Guitar 1: 01:00
 C|-----------------------------------|
 G|--15\12--5~/17---------------5\15--|
Eb|-----------------------------------|
Bb|-----------------------------------|
 F|-----------------------------------|
Bb|-----------------------------------|

Pre-Chorus Piano: 00:53
 C|--------------------|
 G|--12--12--10--10----|
Eb|----12--12--11--11--|
Bb|--------------------|
 F|--------------------|
Bb|--------------------|x6

Chorus: 01:09 Both Guitars
Guitar 1 comes in after slide
 C|----------------------------------------------|
 G|----------------------------------------------|
Eb|----------------------------5555555555555555--|
Bb|--222-22-22-2--222-22-22-22-5555555555555555--|
 F|--222-22-22-2--222-22-22-22-3333333333333333--|
Bb|--222-22-22-2--222-22-22-22-------------------|

Both Guitars 01:19
 C|----------------------------------------------|
 G|----------------------------------------------|
Eb|----------------------------5555555555555555--|
Bb|--222-22-22-2--222-22-22-22-5555555555555555--|
 F|--222-22-22-2--222-22-22-22-3333333333333333--|
Bb|--222-22-22-2--222-22-22-22-------------------|

 C|------------------------|
 G|------------------------|
Eb|------------------------|
Bb|-555555555/9999-x-9\----|
 F|-555555555/9999-x-9\----|
Bb|-555555555/9999-x-9\----|

Verse Guitar 1 01:37
 C|---------|
 G|--5~/17--|
Eb|---------|
Bb|---------|
 F|---------|
Bb|---------|x2

Guitar 2: 01:41
 C|-----------------------|
 G|-----------------------|
Eb|-----------------------|
Bb|--2-0-2--0-0--xxxx-----|
 F|--2-0-2--0-0--xxxx-----|
Bb|--2-0-2--0-0--xxxx-----|x2

Guitar 1 01:57
 C|---------|
 G|--15\12--|
Eb|---------|
Bb|---------|
 F|---------|
Bb|---------|

Both Guitars 02:10
 C|-----------------------------|
 G|-----------------------------|
Eb|------5555555555555555-------|
Bb|-xxxx-5555555555555555--14\--|
 F|-xxxx-3333333333333333--14\--|
Bb|-xxxx-------------------14\--|

Both Guitars 02:20
 C|------------------------|
 G|------------------------|
Eb|------5555555555555555--|
Bb|-xxxx-5555555555555555--|
 F|-xxxx-3333333333333333--|
Bb|-xxxx-------------------|

Guitar 1 02:21
 C|------------------------------|
 G|--------------------------17--|
Eb|--9-11-12-14--12-14-16-19-----|
Bb|------------------------------|
 F|------------------------------|
Bb|------------------------------|
                              ^-tremolo pick
Guitar 2: 02:24
 C|-----------------------------|
 G|-----------------------------|
Eb|--------------------------5--|
Bb|222-22-22-2--222-22-22-22-5--|
 F|222-22-22-2--222-22-22-22-3--|
Bb|222-22-22-2--222-22-22-22----|
                             ^-strum 32x
Guitar 1: 02:38
 C|----------------------------------19-x19--|
 G|--------------------------17----20--------|
Eb|--9-11-12-14--12-14-16-19-----------------|
Bb|------------------------------------------|
 F|------------------------------------------|
Bb|------------------------------------------|
                              ^-tremolo pick
Guitar 2: 02:34
 C|----------------------------------------------|
 G|----------------------------------------------|
Eb|----------------------------5555555555555555--|
Bb|--222-22-22-2--222-22-22-22-5555555555555555--|
 F|--222-22-22-2--222-22-22-22-3333333333333333--|
Bb|--222-22-22-2--222-22-22-22-------------------|

Guitar 2 cont.
 C|----------------------|
 G|----------------------|
Eb|----------------------|
Bb|-555555555/9999-x-9\--|
 F|-555555555/9999-x-9\--|
Bb|-555555555/9999-x-9\--|

Outro: Guitar 1:
 C|---------|
 G|--5~/17--|
Eb|---------|
Bb|---------|
 F|---------|
Bb|---------|x2

Guitar 2:
 C|-----------------------|
 G|-----------------------|
Eb|-----------------------|
Bb|--2-0-2--0-0--xxxx-----|
 F|--2-0-2--0-0--xxxx-----|
Bb|--2-0-2--0-0--xxxx-----|x2

Piano: 03:52 Some delay (listen to the song)
 C|------14----------15-14--13-14-22----15-14-----------------------|
 G|------12-------15-12-12--------------12-12---15-12-----12-15-12--|
Eb|----12-------12----------------------------12--------12----------|
Bb|--14-------14--------------------------------------14------------|
 F|-----------------------------------------------------------------|
Bb|-----------------------------------------------------------------|



13. Outro

Intro Guitar 1: 00:00
E|-----------------------|
B|------------2---1------|
G|----3---1-----------3--|
D|-----------------------|
A|--1--------------------|
D|-----------------------|

Guitar 1
E|---------------------|
B|----------2---1------|
G|--3---1-----------3--|
D|---------------------|
A|---------------------|
D|---------------------|x4 Then 0n 4th time distortion swells

Guitar 3: 00:19 (with slider)
E|-------------------------|
B|-------------------------|
G|--12-/13--9-/10-\8--\-6--|
D|-------------------------|
A|-------------------------|
D|-------------------------|

Guitar 2: 00:18
 C|-------------------------|
 G|-------------------------|
Eb|-------------------------|
Bb|--8-7-5--5-5--5-7-10-10--|
 F|--8-7-5--5-5--5-7-8--10--|
Bb|--8-7-5--5-5--5-7-8--10--|

Guitar 1: 00:19
E|---------------------------------------------|
B|----------14-13------14-13--16h18-16--14\13--|
G|--15--13---------15--------------------------|
D|---------------------------------------------|
A|---------------------------------------------|
D|---------------------------------------------|

Guitar 1: 00:27
E|---------------------|
B|----------14-13------|
G|--15--13---------15--|
D|---------------------|
A|---------------------|
D|---------------------|play 3 times

Guitar 2: 00:18
 C|-----------------------------------|
 G|-----------------------------------|
Eb|-----------------------------------|
Bb|--0-0-0-0-0-0-0-0-8-8-8-8-8-8-8-8--|
 F|--0-0-0-0-0-0-0-0-8-8-8-8-8-8-8-8--|
Bb|--0-0-0-0-0-0-0-0-8-8-8-8-8-8-8-8--|

Guitar 2 continued: 00:34
 C|-----------------------------------------------------|
 G|-----------------------------------------------------|
Eb|-----------------------------------------------------|
Bb|--0-0-0-0-0-0-0-0-8-8-8-8-8-8-8-7-5--5-5--5-7-10-10--|
 F|--0-0-0-0-0-0-0-0-8-8-8-8-8-8-8-7-5--5-5--5-7-8--10--|
Bb|--0-0-0-0-0-0-0-0-8-8-8-8-8-8-8-7-5--5-5--5-7-8--10--|

Guitar 1: 00:39
E|------------------------|
B|----------14-13---------|
G|--15--13---------15/20--|
D|------------------------|
A|------------------------|
D|------------------------|

Guitar 3: 00:41 (with slider)
E|----------------------|
B|----------------------|
G|--8/-11--10/11\10\-8--|
D|----------------------|
A|----------------------|
D|----------------------|

Guitar 1: 00:42
E|---------------------------------------------|
B|----------14-13------14-13--16h18-16--14\13--|
G|--15--13---------15--------------------------|
D|---------------------------------------------|
A|---------------------------------------------|
D|---------------------------------------------|

Guitar 3: 00:50 (with slider) Listen for picking (and sliding)
E|--13--13--11--13/14-14-14--13--14/16-16--14-16/18--18--|
B|-------------------------------------------------------|
G|-------------------------------------------------------|
D|-------------------------------------------------------|
A|-------------------------------------------------------|
D|-------------------------------------------------------|
                        ^ move the slider a little bit (side to side)
Guitar 3: 01:04
E|--16/18/20--18/20/21----23--24/-26-26----26--26-26--\--|
B|-------------------------------------------------------|
G|-------------------------------------------------------|
D|-------------------------------------------------------|
A|-------------------------------------------------------|
D|-------------------------------------------------------|
                                                      ^ Slide down

Guitar 2: 00:50
 C|-----------------------------------|
 G|-----------------------------------|
Eb|-----------------------------------|
Bb|--0-0-0-0-0-0-0-0-8-8-8-8-8-8-8-8--|
 F|--0-0-0-0-0-0-0-0-8-8-8-8-8-8-8-8--|
Bb|--0-0-0-0-0-0-0-0-8-8-8-8-8-8-8-8--|

Guitar 2 continued: 00:57
 C|-----------------------------------------------------|
 G|-----------------------------------------------------|
Eb|-----------------------------------------------------|
Bb|--0-0-0-0-0-0-0-0-8-8-8-8-8-8-8-7-5--5-5--5-7-10-10--|
 F|--0-0-0-0-0-0-0-0-8-8-8-8-8-8-8-7-5--5-5--5-7-8--10--|
Bb|--0-0-0-0-0-0-0-0-8-8-8-8-8-8-8-7-5--5-5--5-7-8--10--|

Guitar 2: 01:13
 C|-----------------------------------|
 G|-----------------------------------|
Eb|-----------------------------------|
Bb|--0-0-0-0-0-0-0-0-8-8-8-8-8-8-8-8--|
 F|--0-0-0-0-0-0-0-0-8-8-8-8-8-8-8-8--|
Bb|--0-0-0-0-0-0-0-0-8-8-8-8-8-8-8-8--|

Guitar 3: 01:22 Slide up the fret board with slider (to the pick-ups)

Guitar 2 continued: 01:20
 C|-----------------------------------------------------|
 G|-----------------------------------------------------|
Eb|-----------------------------------------------------|
Bb|--0-0-0-0-0-0-0-0-8-8-8-8-8-8-8-7-5--5-5--5-7-10-10--|
 F|--0-0-0-0-0-0-0-0-8-8-8-8-8-8-8-7-5--5-5--5-7-8--10--|
Bb|--0-0-0-0-0-0-0-0-8-8-8-8-8-8-8-7-5--5-5--5-7-8--10--|

Guitar 2: 01:36
 C|-----|
 G|-----|
Eb|-----|
Bb|--0--|
 F|--0--|
Bb|--0--|



14. The Diary of Jane (Acoustic) *Coming Soon*

Intro Guitar 1/left hand
 C|---------------------------------------|
 G|---------------------------------------|
Eb|--7------------------------------------|
Bb|--7------------------7-----------------|
 F|--5------------------5-----------------|
Bb|---------------------------------------|x2

Intro Guitar 2/right hand
 C|---------------------------------------|
 G|----10-10-10-10-10-11--10-10-13-11-10--|
Eb|---------------------------------------|
Bb|---------------------------------------|
 F|---------------------------------------|
Bb|---------------------------------------|x2

Guitar 1/left hand
 C|-------------------------------------------|
 G|------6--------------------5---------------|
Eb|-------------------------------------------|
Bb|--0h3------------------0h2-----------------|
 F|-------------------------------------------|
Bb|-------------------------------------------|

Guitar 2/right hand
 C|-------------------------------------------|
 G|--------(10)10-10-10-11-------10-13-11-10--|
Eb|-------------------------------------------|
Bb|-------------------------------------------|
 F|-------------------------------------------|
Bb|-------------------------------------------|

Guitar 1/left hand
 C|-----------------------------------------------|
 G|-----------------------------------------------|
Eb|--7------------------7-7-----------------------|
Bb|--7------------------7-------------------------|
 F|--5------------------5--------5h7-5h8-7-5h7-5--|
Bb|-----------------------------------------------|

Guitar 2/right hand
 C|-----------------------------------------------|
 G|-------10-10-10-10-11----10-10-----------------|
Eb|-----------------------------------------------|
Bb|-----------------------------------------------|
 F|-----------------------------------------------|
Bb|-----------------------------------------------|

Verse 1 Guitar 1/left hand (I think I'll stop here for now, LOL)
 C|---------------------------------------|
 G|---------------------------------------|
Eb|---------------------------------------|
Bb|---------------------------------------|
 F|---------------------------------------|
Bb|---------------------------------------|

Verse 1 Guitar 2/right hand
 C|---------------------------------------|
 G|---------------------------------------|
Eb|---------------------------------------|
Bb|---------------------------------------|
 F|---------------------------------------|
Bb|---------------------------------------|



LEGEND:
h-hammer on
~-let ring
b-bend
brb-bend return bend
p-pull off
pm-palm mute
*-harmonic
x-scratch/don't play
/-slide up
\-slide down
()-Optional
11 comments total. Showing first comments.
0 reply
Bass Pants wrote on June 25 2007, 09:34 pm

I was personally waiting for this, thank you U B the band, 5 stars, great job now the guitarist in my band should have no problems finding goof Phobia tabs

0 reply
jane's_diary wrote on June 26 2007, 10:31 am

good job matt 5 stars

0 reply
b_ball_girl1021 wrote on June 27 2007, 04:52 pm

Thanks man! I personally like getting album tabs instead of having to search for good ones.5*

I want to post or [tab]
guest
You may want to rate the tab now too:
select rating
Please do not post tabs as comments. Select "correction" instead!