Oops, an error
Loading. Please wait.

Saturate Tab

20,927 views 18 this week
22 commentsread comments
1 2 3 4 5
worth learning
x 18
Autoscroll
+/-
esc
set tempo
stop
Contributor
WARNING: You are trying to view
                                    content from Ultimate-Guitar.com
                                    in an unauthorized application,
                                    which is prohibited.

                                    Please use an official Ultimate
                                    Guitar Tabs application for iPhone,
                                    iPad or Android to access legitimate
                                    chords, guitar, bass, and drum tabs
                                    from Ultimate-Guitar.com database.

                                    Type "ultimate guitar tabs" in Apple
                                    App Store's or Android Market's
                                    search to find the application.
Band- Breaking Benjamin
Album- Saturate

Track Listings:
1.Wish I May
2.Medicate
3.Polyamorous
4.Skin
5.Natural Life
6.Next To Nothing
7.Water
8.Home
9.Phase
10.No Games
11.Sugarcoat
12.Shallow Bay

-----------------------------------------

1.WISH I MAY

Tuning (low to high):  Db, Ab, Db, Gb, Bb, Eb


Intro     
       Guitar 1 (00:08)
Eb|-----------------------------|-----------------------------|
Bb|-----------------------------|-----------------------------|
Gb|-----------------------------|-----------------------------|
Dd|-0----0----0-----5\4---------|-0----0----0-----7/8\7-------|
Ad|-0----0----0-----------5/6---|-0----0----0-----------------|
Dd|-0----0----0-----------------|-0----0----0-----------------|

Eb|-----------------------------|-----------------------------|
Bb|-----------------------------|-----------------------------|
Gb|-----------------------------|-----------------------------|
Dd|-0----0----0-----5\4---------|-0----0----0-----5\3/5-------|
Ad|-0----0----0-----------5/6---|-0----0----0-----------------|
Dd|-0----0----0-----------------|-0----0----0-----------------|
       *play 2x

       Guitar 2 (00:08)
Eb|-----------------3\2---------|-----------------5/6/5-------|
Bb|-----------------------3/4---|-----------------------------|
Gb|-----------------------------|-----------------------------|
Dd|-0----0----0-----------------|-0----0----0-----------------|
Ad|-0----0----0-----------------|-0----0----0-----------------|
Dd|-0----0----0-----------------|-0----0----0-----------------|

Eb|-----------------3\2---------|-----------------------------|
Bb|-----------------------3/4---|-----------------3\1/3-------|
Gb|-----------------------------|-----------------------------|
Dd|-0----0----0-----------------|-0----0----0-----------------|
Ad|-0----0----0-----------------|-0----0----0-----------------|
Dd|-0----0----0-----------------|-0----0----0-----------------|
        *play 2x

       Guitar 1 & 2 (00:24)
Eb|-----------------------------|-----------------------------|
Bb|-----------------------------|--------------------------8\-|
Gb|-----------------------------|--------------------------8\-|
Dd|-0---0---0--0--0--0----------|-0---0---0--0--0--0--0----8\-|
Ad|-0---0---0--0--0--0----------|-0---0---0--0--0--0--0-------|
Dd|-0---0---0--0--0--0----------|-0---0---0--0--0--0--0-------|
       *w/ p.m.
Eb|-----------------------------|-----------------------------|
Bb|-----------------------------|-----------------------------|
Gb|-----------------------------|-------------------8--8--8\7-|
Dd|-0---0---0--0--0--0----------|-0---0---0--0--0---8--8--8\7-|
Ad|-0---0---0--0--0--0----------|-0---0---0--0--0---6--6--6\5-|
Dd|-0---0---0--0--0--0----------|-0---0---0--0--0-------------|

Verse  (00:32)  "Shove me under..."
       Guitar 1
Eb|-----------------------------|-----------------------------|
Bb|-----------------------------|-----------------------------|
Gb|-(7)-----------(7)-----------|-(7)-----------(7)-------8\7-|
Dd|-(7)-----------(7)-----------|-(7)-----------(7)-------8\7-|
Ad|-(5)-----------(5)-----------|-(5)-----------(5)-------6\5-|
Dd|-----------------------------|-----------------------------|
       *play 4x

       Guitar 2
Eb|-----------------------------|-----------------------------|
Bb|-----------------------------|-----------------------------|
Gb|-----------------------------|-----------------------------|
Dd|-0---0---0--0--0--0----------|-0---0---0--0--0--0--0-------|
Ad|-0---0---0--0--0--0----------|-0---0---0--0--0--0--0-------|
Dd|-0---0---0--0--0--0----------|-0---0---0--0--0--0--0-------|
       *w/ p.m. (play 4x)

Prechorus (00:48)  "Why should I..."
Eb|-----------------------------|-----------------------------|
Bb|-----------------------------|-----------------------------|
Gb|-----------------------------|-8-----8-----8-----8------8--|
Dd|-5-----5-----5-----5------5--|-8-----8-----8-----8------8--|
Ad|-5-----5-----5-----5------5--|-6-----6-----6-----6------6--|
Dd|-5-----5-----5-----5------5--|-----------------------------|
       *play 2x

Chorus (00:57)  "We left this..."
Eb|-----------------------------|-----------------------------|
Bb|------3-----------------3----|------3-----------------3----|
Gb|-3-------3-----------------3-|---------3-----------------3-|
Dd|-3---------------------------|-1---------------------------|
Ad|-1---------------------------|-1---------------------------|
Dd|-----------------------------|-1---------------------------|
       *play 2x

Eb|-----------------------------|-----------------------------|
Bb|------3-----------------3----|------3-----------------3----|
Gb|---------3-----------------3-|---------3-----------------3-|
Dd|-5---------------------------|-1---------------------------|
Ad|-3---------------------------|-1---------------------------|
Dd|-----------------------------|-1---------------------------|
       *play 2x

Back to Intro (01:13)

Bridge (02:19)
Eb|-----------------------------|-----------------------------|
Bb|-----------------------------|-----------------------------|
Gb|-----------------------------|-----------------------------|
Dd|-0--0--0--0--0--0-----7------|-0--0--0--0--0--0-----7--8---|
Ad|-0--0--0--0--0--0--------8---|-0--0--0--0--0--0------------|
Dd|-0--0--0--0--0--0------------|-0--0--0--0--0--0------------|
       *w/ p.m.
Eb|-----------------------------|-----------------------------|
Bb|-----------------------------|-----------------------------|
Gb|-----------------------------|-----------------------------|
Dd|-0--0--0--0--0--0-----7------|-1---1---1---1-----1---------|
Ad|-0--0--0--0--0--0--------8\--|-1---1---1---1-----1---------|
Dd|-0--0--0--0--0--0------------|-1---1---1---1-----1---------|
       *play 2x

Solo (02:27)
       Guitar 2
Eb|-----------------------------|-----------------------------|
Bb|-----------------------------|-----------------------------|
Gb|-----------------------------|-----------------------------|
Dd|-3h5-----(5)-----3---------0-|-5h7-----(7)------7b8----5p0-|
Ad|-----------------------------|-----------------------------|
Dd|-----------------------------|-----------------------------|

Eb|-----------------------------|-----------------------------|
Bb|-----------------------------|-----------------------------|
Gb|-----------------------------|-----------------------------|
Dd|-3h5-----(5)-----3-------0---|------------6p5---5\---------|
Ad|-----------------------------|-5---6---6-------------------|
Dd|-----------------------------|-----------------------------|
                                            *a.h. *a.h.
Eb|-----------------------------|-----------------------------|
Bb|-/11--------10---------------|-/8---------6----------------|
Gb|-----------------------------|-----------------------------|
Dd|-----------------------------|-----------------------------|
Ad|-----------------------------|-----------------------------|
Dd|-----------------------------|-----------------------------|

Eb|-----------------------------|-----------------------------|
Bb|-----------------------------|-----------------------------|
Gb|-/8--7-----------------5--7--|-7/8--7--5---7b8r7------(7)--|
Dd|-----------------------------|-----------------------------|
Ad|-----------------------------|-----------------------------|
Dd|-----------------------------|-----------------------------|

       Guitar 1 (02:27) *rhythm during solo*
Eb|-----------------------------|-----------------------------|
Bb|-----------------------------|-----------------------------|
Gb|-----------------------------|-----------------------------|
Dd|-5----5--5--5-----1----/8\---|-5----5--5--5-----1----/8\---|
Ad|-5----5--5--5-----1----/8\---|-5----5--5--5-----1----/8\---|
Dd|-5----5--5--5-----1----/8\---|-5----5--5--5-----1----/8\---|

Eb|-----------------------------|-----------------------------|
Bb|-----------------------------|-----------------------------|
Gb|-----------------------------|-----------------------------|
Dd|-5----5--5--5-----1----/8\---|-1----1----1----1-------1----|
Ad|-5----5--5--5-----1----/8\---|-1----1----1----1-------1----|
Dd|-5----5--5--5-----1----/8\---|-1----1----1----1-------1----|
       *play 2x

Chorus II (02:44)  "We left this..."
Eb|-----------------------------|-----------------------------|
Bb|------3-----------------3----|------3-----------------3----|
Gb|-3-------3-----------------3-|---------3-----------------3-|
Dd|-3---------------------------|-1---------------------------|
Ad|-1---------------------------|-1---------------------------|
Dd|-----------------------------|-1---------------------------|
       *play 2x

Eb|-----------------------------|-----------------------------|
Bb|------3-----------------3----|------3-----------------3----|
Gb|---------3-----------------3-|---------3-----------------3-|
Dd|-5---------------------------|-1---------------------------|
Ad|-3---------------------------|-1---------------------------|
Dd|-----------------------------|-1---------------------------|
       *play 2x

Eb|-----------------------------|-----------------------------|
Bb|------3-----------------3----|------3-----------------3----|
Gb|-3-------3-----------------3-|---------3-----------------3-|
Dd|-3---------------------------|-1---------------------------|
Ad|-1---------------------------|-1---------------------------|
Dd|-----------------------------|-1---------------------------|
       *play 2x

Eb|-5-----5-----5-------5----5--|-/6----6-----6-------6----6--|
Bb|-5-----5-----5-------5----5--|-/6----6-----6-------6----6--|
Gb|-2-----2-----2-------2----2--|-/3----3-----3-------3----3--|
Dd|-----------------------------|-----------------------------|
Ad|-----------------------------|-----------------------------|
Dd|-----------------------------|-----------------------------|
       *play 2x

    (03:16)
Eb|-----------------------------|-----------------------------|
Bb|-----------------------------|-----------------------------|
Gb|-----------------------------|-----------------------------|
Dd|-0----0----0-----5\4---------|-0----0----0-----7/8\7-------|
Ad|-0----0----0-----------5/6---|-0----0----0-----------------|
Dd|-0----0----0-----------------|-0----0----0-----------------|

Eb|-----------------------------|-----------------------------|
Bb|-----------------------------|-----------------------------|
Gb|-----------------------------|-----------------------------|
Dd|-0----0----0-----5\4---------|-0----0----0-----5\3/5-------|
Ad|-0----0----0-----------5/6---|-0----0----0-----------------|
Dd|-0----0----0-----------------|-0----0----0-----------------|
     
       Guitar 2 (00:08)
Eb|-----------------3\2---------|-----------------5/6/5-------|
Bb|-----------------------3/4---|-----------------------------|
Gb|-----------------------------|-----------------------------|
Dd|-0----0----0-----------------|-0----0----0-----------------|
Ad|-0----0----0-----------------|-0----0----0-----------------|
Dd|-0----0----0-----------------|-0----0----0-----------------|

Eb|-----------------3\2---------|-----------------------------|
Bb|-----------------------3/4---|-----------------3\1/3-------|
Gb|-----------------------------|-----------------------------|
Dd|-0----0----0-----------------|-0----0----0-----------------|
Ad|-0----0----0-----------------|-0----0----0-----------------|
Dd|-0----0----0-----------------|-0----0----0-----------------|

Outro (03:24)  "Blind eyes shine bright"
Eb|-----------------------------|-----------------------------|
Bb|-----------------------------|-----------------------------|
Gb|-----------------------------|-----------------------------|
Dd|-8-----8-----8-----8---------|-8-----8-----8-----8---------|
Ad|-6-----6-----6-----6---------|-6-----6-----6-----6---------|
Dd|-8-----8-----8-----8---------|-8-----8-----8-----8---------|

Eb|-----------------------------|-----------------------------|
Bb|-----------------------------|-----------------------------|
Gb|-----------------------------|-------------------8---8---8-|
Dd|-8-----8-----8-----8---------|-8-----8-----8-----8---8---8-|
Ad|-6-----6-----6-----6---------|-6-----6-----6-----6---6---6-|
Dd|-8-----8-----8-----8---------|-8-----8-----8---------------|

Eb|-----------------------------|
Bb|-----------------------------|
Gb|-----------------------------|
Dd|-0--------------(0)----------|
Ad|-0--------------(0)----------|
Dd|-0--------------(0)----------|
    *let ring until end

       Guitar 2 (03:33)
Eb|-----------------------------|-5-------------5-------------|
Bb|-----------------------------|-----------------------------|
Gb|-----------------------------|-----------------------------|
Dd|-0--------------(0)----------|-----------------------------|
Ad|-0--------------(0)----------|-----------------------------|
Dd|-0--------------(0)----------|-----------------------------|

Eb|-5---------5---------5-------|-6--------6--------3---------|
Bb|-----------------------------|-----------------------------|
Gb|-----------------------------|-----------------------------|
Dd|-----------------------------|-----------------------------|
Ad|-----------------------------|-----------------------------|
Dd|-----------------------------|-----------------------------|

Eb|-6---------5---------5-------|-5--------5--------6---------|
Bb|-----------------------------|-----------------------------|
Gb|-----------------------------|-----------------------------|
Dd|-----------------------------|-----------------------------|
Ad|-----------------------------|-----------------------------|
Dd|-----------------------------|-----------------------------|

Eb|-6---------3---------------6-|--------------------------5--|
Bb|-----------------------------|-----------------------------|
Gb|-----------------------------|-----------------------------|
Dd|-----------------------------|-----------------------------|
Ad|-----------------------------|-----------------------------|
Dd|-----------------------------|-----------------------------|

Eb|-------------(5)-------------|
Bb|-----------------------------|
Gb|-----------------------------|
Dd|-----------------------------|
Ad|-----------------------------|
Dd|-----------------------------|

2.MEDICATE

Tuning (low to high):  Db, Ab, Db, Gb, Bb, Eb


Intro     
       Guitars 1 & 2
Eb|--------------------------------|--------------------------------|
Bb|--------------------------------|--------------------------------|
Gb|--------------------------------|--------------------------------|
Dd|-0---0---0---0---4---4---4---4--|-8---8---8---8---7---7---7---7--|
Ad|-0---0---0---0---4---4---4---4--|-8---8---8---8---7---7---7---7--|
Dd|-0---0---0---0---4---4---4---4--|-8---8---8---8---7---7---7---7--|
       *play 4x

      (00:17) Guitar 2
Eb|--------------------------------|--------------------------------|
Bb|--------------------------------|--------------------------------|
Gb|--------------------------------|--------------------------------|
Dd|-0--------------(0)-------------|-(0)--------------(0)-----------|
Ad|-0--------------(0)-------------|-(0)--------------(0)-----------|
Dd|-0--------------(0)-------------|-(0)--------------(0)-----------|

Verse (00:17) "I've got somethin'..."
       Guitar 1 (clean tone)
Eb|--------------------------------|--------------------------------|
Bb|--------------------------------|--------------------------------|
Gb|--------------------------------|--------------------------------|
Dd|---------0---------------0------|---------0----------------------|
Ad|-----0-------0-------0-------0--|-----0-------0--------0-------0-|
Dd|-0---------------4--------------|-8----------------7-------8-----|
        *play 10x

       Guitar 1 & 2 (00:56)
Eb|--------------------------------|--------------------------------|
Bb|--------------------------------|--------------------------------|
Gb|-3---3---3---3---3---3---3---3--|-3---3---3---3---3---3---3---3--|
Dd|-3---3---3---3---3---3---3---3--|-3---3---3---3---3---3---3---3--|
Ad|-1---1---1---1---1---1---1---1--|-1---1---1---1---1---1---1---1--|
Dd|--------------------------------|--------------------------------|
       *w/ distortion (p.m. first, then let off towards end of bar)

Chorus (01:00)  "Run away..."
Eb|--------------------------------|--------------------------------|
Bb|--------------------------------|--------------------------------|
Gb|--------------------------------|-5---5---5---5---5---5---5---5--|
Dd|-3---3---3---3---3---3---3---3--|-5---5---5---5---5---5---5---5--|
Ad|-3---3---3---3---3---3---3---3--|-3---3---3---3---3---3---3---3--|
Dd|-3---3---3---3---3---3---3---3--|--------------------------------|

Eb|--------------------------------|--------------------------------|
Bb|--------------------------------|--------------------------------|
Gb|-7---7---7---7---7---7---7---7--|-3---3---3---3---3---3---3---3--|
Dd|-7---7---7---7---7---7---7---7--|-3---3---3---3---3---3---3---3--|
Ad|-5---5---5---5---5---5---5---5--|-1---1---1---1---1---1---1---1--|
Dd|--------------------------------|--------------------------------|
       *play 2x

       (01:17)
Eb|--------------------------------|--------------------------------|
Bb|--------------------------------|--------------------------------|
Gb|--------------------------------|--------------------------------|
Dd|-0--------------(0)-------------|-(0)--------------(0)-----------|
Ad|-0--------------(0)-------------|-(0)--------------(0)-----------|
Dd|-0--------------(0)-------------|-(0)--------------(0)-----------|

Eb|--------------------------------|--------------------------------|
Bb|--------------------------------|--------------------------------|
Gb|--------------------------------|--------------------------------|
Dd|-(0)------------(0)-------------|-(0)--------------(0)-----------|
Ad|-(0)------------(0)-------------|-(0)--------------(0)-----------|
Dd|-(0)------------(0)-------------|-(0)--------------(0)-------10\-|

back to verse (01:26)

Chorus (2nd time 02:00)  "Run away..."
Eb|--------------------------------|--------------------------------|
Bb|--------------------------------|--------------------------------|
Gb|--------------------------------|-5---5---5---5---5---5---5---5--|
Dd|-3---3---3---3---3---3---3---3--|-5---5---5---5---5---5---5---5--|
Ad|-3---3---3---3---3---3---3---3--|-3---3---3---3---3---3---3---3--|
Dd|-3---3---3---3---3---3---3---3--|--------------------------------|

Eb|--------------------------------|--------------------------------|
Bb|--------------------------------|--------------------------------|
Gb|-7---7---7---7---7---7---7---7--|-3---3---3---3---3---3---3---3--|
Dd|-7---7---7---7---7---7---7---7--|-3---3---3---3---3---3---3---3--|
Ad|-5---5---5---5---5---5---5---5--|-1---1---1---1---1---1---1---1--|
Dd|--------------------------------|--------------------------------|
       *play 2x

Eb|--------------------------------|--------------------------------|
Bb|--------------------------------|--------------------------------|
Gb|--------------------------------|-5---5-x--x----5---5-x--x-------|
Dd|-3---3-x--x---3---3-x--x--------|-5---5-x--x----5---5-x--x-------|
Ad|-3---3-x--x---3---3-x--x--------|-3---3-x--x----3---3-x--x-------|
Dd|-3---3-x--x---3---3-x--x--------|--------------------------------|

Eb|--------------------------------|--------------------------------|
Bb|--------------------------------|--------------------------------|
Gb|-7---7-x--x---7---7-x--x--------|-3---3---3---3---3---2---3---2--|
Dd|-7---7-x--x---7---7-x--x--------|-3---3---3---3---3---2---3---2--|
Ad|-5---5-x--x---5---5-x--x--------|-1---1---1---1---1---0---1---0--|
Dd|--------------------------------|--------------------------------|

Eb|--------------------------------|--------------------------------|
Bb|--------------------------------|--------------------------------|
Gb|--------------------------------|-5---5---5---5---5---5---5---5--|
Dd|-3---3---3---3---3---3---3---3--|-5---5---5---5---5---5---5---5--|
Ad|-3---3---3---3---3---3---3---3--|-3---3---3---3---3---3---3---3--|
Dd|-3---3---3---3---3---3---3---3--|--------------------------------|

Eb|--------------------------------|--------------------------------|
Bb|--------------------------------|--------------------------------|
Gb|-7---7---7---7---7---7---7---7--|-3---3---3---3---3---3---3---3--|
Dd|-7---7---7---7---7---7---7---7--|-3---3---3---3---3---3---3---3--|
Ad|-5---5---5---5---5---5---5---5--|-1---1---1---1---1---1---1---1--|
Dd|--------------------------------|--------------------------------|

Bridge (02:32)
Eb|--------------------------------|--------------------------------|
Bb|--------------------------------|--------------------------------|
Gb|-7-------7----------------------|--------------------------------|
Dd|-7---0---7---0---4---0---4---0--|-8---0---8---0---7---0---7---0--|
Ad|-5---0---5---0---4---0---4---0--|-8---0---8---0---7---0---7---0--|
Dd|-----0-------0---4---0---4---0--|-8---0---8---0---7---0---7---0--|
       *play 4x

Eb|--------------------------------|--------------------------------|
Bb|--------------------------------|--------------------------------|
Gb|-3---3---3---3---3---3---3---3--|-3---3---3---3---3---3---3---3--|
Dd|-3---3---3---3---3---3---3---3--|-3---3---3---3---3---3---3---3--|
Ad|-1---1---1---1---1---1---1---1--|-1---1---1---1---1---1---1---1--|
Dd|--------------------------------|--------------------------------|
       *w/ distortion (p.m. first, then let off towards end of bar)

back to chorus (02:49)

Outro
       Guitar 1 (03:09)
Eb|--------------------------------|--------------------------------|
Bb|--------------------------------|--------------------------------|
Gb|--------------------------------|-5---5---5---5---5---5---5---5--|
Dd|-3---3---3---3---3---3---3---3--|-5---5---5---5---5---5---5---5--|
Ad|-3---3---3---3---3---3---3---3--|-3---3---3---3---3---3---3---3--|
Dd|-3---3---3---3---3---3---3---3--|--------------------------------|

Eb|--------------------------------|--------------------------------|
Bb|--------------------------------|--------------------------------|
Gb|-7---7---7---7---7---7---7---7--|-3---3---3---3---3---3---3---3--|
Dd|-7---7---7---7---7---7---7---7--|-3---3---3---3---3---3---3---3--|
Ad|-5---5---5---5---5---5---5---5--|-1---1---1---1---1---1---1---1--|
Dd|--------------------------------|--------------------------------|
       *play 3x

       Guitar 2 (03:09)
Eb|--------------------------------|--------------------------------|
Bb|----------6------5---------6----|----------6------5---------6----|
Gb|--------------------------------|--------------------------------|
Dd|--------------------------------|--------------------------------|
Ad|--------------------------------|--------------------------------|
Dd|--------------------------------|--------------------------------|

Eb|--------------------------------|-----------------6---------5----|
Bb|----------6------5---------6----|--------------------------------|
Gb|--------------------------------|--------------------------------|
Dd|--------------------------------|--------------------------------|
Ad|--------------------------------|--------------------------------|
Dd|--------------------------------|--------------------------------|
       *play 3x

       Guitar 1 & 2
Eb|--------------------------------|
Bb|--------------------------------|
Gb|--------------------------------|
Dd|-3--------------(3)-------------|
Ad|-3--------------(3)-------------|
Dd|-3--------------(3)-------------|

3.POLYAMOROUS

Tuning: Drop D

Intro:
Eb|--------------------------------| 
Bb|--------------------------------|
Gb|--------------------------------| 2X
Db|-8---4--------------------------|
Ab|-8-~-4-~------------------------|
Db|-8---4--------------------------|

Eb|--------------------------------| 
Bb|--------------------------------|
Gb|--------------------------------|  
Db|-88-8-00-0-44-44-4--------------| 4X
Ab|-88-8-00-0-44-44-4--------------|
Db|-88-8-00-0-44-44-4--------------|

And then the cool part..
Eb|--------------------------------| 
Bb|--------------------------------|
Gb|--------------------------------|  
Db|-88---------88------------------| 4X
Ab|-88-9-9-8-8-88-11-11-9-9--------|
Db|-88---------88------------------|

Verse:
Eb|--------------------------------------| 
Bb|--------------------------------------|
Gb|--------------------------------------|  
Db|------4-4-3-3-----4-4-3-3-----3-3-4-4-|
Ab|-1-1----------------------------------|
Db|--------------3-3---------4-4---------|

Eb|--------------------------------| 
Bb|--------------------------------|
Gb|--------------------------------|  
Db|-----4-4-3-3--------------------| 3x
Ab|--------------------------------|
Db|-1-1----------------------------|

Then...

Eb|--------------------------------------| 
Bb|--------------------------------------|
Gb|--------------------------------------|  
Db|------4-4-3-3-----4-4-3-3-----3-3-4-4-|
Ab|-1-1----------------------------------|
Db|--------------3-3---------4-4---------|

Eb|--------------------------------| 
Bb|--------------------------------|
Gb|--------------------------------|  
Db|------3/-------------------------|
Ab|------3/-------------------------|
Db|-1-1--3/-------------------------|



Chorus
Eb|------------------|       |--------------|----------------|
Bb|------------------|       |--------------|----------------|
Gb|------------------|       |--------------|----------------|
Db|0--6--4--0-4-3-0-3|2X     |0--6--4--xx--x|0--3--4--4-3-0-3|
Ab|0--6--4--0-4-3-0-3|       |0--6--4--xx--x|0--3--4--4-3-0-3|
Db|0--6--4--0-4-3-0-3|       |0--6--4--xx--x|0--3--4--4-3-0-3|

Then...
Eb|--------------------------------| 
Bb|--------------------------------|
Gb|--------------------------------|  
Db|-88------88---------------------| 2X
Ab|-88-9988-88-111199--------------|
Db|-88------88---------------------|


Bridge
Eb|-------|-----------------------|
Bb|-------|-----------------------|
Gb|3---5-6|-----------------------|
Db|3---5-6|6--6--6--6--6--1--4--3-| 2X
Ab|1---3-4|3--4--3--4--3--1--4--3-|
Db|-------|3--4--3--4--3--1--4--3-|

Db|-------------------------------|-------------------------------|
Bb|-------------------------------|-------------------------------|
Gb|-------------------------------|-------------------------------|
Db|-------------------------------|-------------------------------|
Ab|1-1-1-1-1-1-1-1-3-3-3-3-4-4-4-4|-------------------------------|
Db|-------------------------------|3-3-3-3-3-3-3-3-4-4-4-4-3-3-3-3|

Eb|-------------------------------|-------------------------------|
Bb|-------------------------------|-------------------------------|
Gb|-------------------------------|-------------------------------|
Db|-------------------------------|-------------------------------|
Ab|-------------------------------|-------------------------------|
Db|4-4-4-4-4-4-4-4-4-4-4-4-3-3-3-3|1-1-1-1-1-1-1-1-4-4-4-4-3-3-3-3|

Eb|-------------------------------|-------------------------------|
Bb|-------------------------------|-------------------------------|
Gb|3-3-3-3-3-3-3-3-5-5-5-5-6-6-6-6|5-5-5-5-5-5-5-5-6-6-6-6-8-8-8-8|
Db|-------------------------------|-------------------------------|
Ab|1-1-1-1-1-1-1-1-3-3-3-3-4-4-4-4|3-3-3-3-3-3-3-3-4-4-4-4-6-6-6-6|
Db|-------------------------------|-------------------------------|

Eb|-------------------------------|-------------------------------|
Bb|-------------------------------|-------------------------------|
Gb|6-6-6-6-6-6-6-6-6-6-6-6-5-5-5-5|3-3-3-3-3-3-3-3-6-6-6-6-5-5-5-5|
Db|-------------------------------|-------------------------------|
Ab|4-4-4-4-4-4-4-4-4-4-4-4-3-3-3-3|1-1-1-1-1-1-1-1-4-4-4-4-3-3-3-3|
Db|-------------------------------|-------------------------------|

Eb|---------------------------|---------------|
Bb|---------------------------|---------------|
Gb|---------------------------|---------------|
Db|0--0--4-3-0-3-0--0--4-3-0-3|0--0--4-3-0-3-0|
Ab|0--0--4-3-0-3-0--0--4-3-0-3|0--0--4-3-0-3-0|


Outro to this awesome song
Eb|--------------|----------------|
Bb|--------------|----------------|
Gb|--------------|----------------|2X
Db|0--6--6--xx--x|0--6--6--4-3-0-3|
Ab|0--3--4--xx--x|0--3--4--4-3-0-3|
Db|0--3--4--xx--x|0--3--4--4-3-0-3|

Eb|----------------------------------|------------------|
Bb|----------------------------------|------------------|
Gb|----------------------------------|------------------|
Db|8--8-------------8--8-------------|8--8------------8\|
Ab|8--8--9-9-8-8----8--8--11-11-9--9-|8--8--9-9-8-8---8\|
Db|8--8-------------8--8-------------|8--8------------8\|

4.SKIN

Tuning (low to high): Db, Ab, Db, Gb, Bb, Eb

Both guitars - Distortion throughout whole song


Intro (0:00)

Guitar 1:
eb|-|-----------------|-----------------|-----------------|-----------------|
Bb|-|-----------------|-----------------|-----------------|-----------------|
Gb|-|-----------------|-----------------|-----------------|-----------------|
Db|x|4-4-xx-x4-4-x7---|5-5-xx-x5-5-x8---|4-4-xx-x4-4-x7---|5-5-xx-x5-5-x8---|
Ab|x|0-0-xx-x0-0-x7---|5-5-xx-x5-5-x8---|0-0-xx-x0-0-x7---|5-5-xx-x5-5-x8---|
Db|x|0-0-xx-x0-0-x7---|5-5-xx-x5-5-x8---|0-0-xx-x0-0-x7---|5-5-xx-x5-5-x8---|
Guitar 2:
eb|-|-----------------|-----------------|-----------------|-----------------|
Bb|-|-----------------|-----------------|-----------------|-----------------|
Gb|-|-----------------|-----------------|-----------------|-----------------|
Db|-|-----------------|-----------------|-----------------|-----------------|
Ab|-|-----------------|-----------------|-----------------|-----------------|
Db|-|-----------------|-----------------|-----------------|-----------------|

Guitar 1
eb|-------------------|-----------------|-----------------|-----------------|
Bb|-------------------|-----------------|-----------------|-----------------|
Gb|-------------------|-----------------|-----------------|-----------------|
Db|--4-4-xx-x4-4-x7---|5-5-xx-x5-5-x8---|4-4-xx-x4-4-x7---|5\---------------|
Ab|--0-0-xx-x0-0-x7---|5-5-xx-x5-5-x8---|0-0-xx-x0-0-x7---|5\---------------|
Db|--0-0-xx-x0-0-x7---|5-5-xx-x5-5-x8---|0-0-xx-x0-0-x7---|5\---------------|
Guitar 2:
eb|-------------------|-----------------|-----------------|-----------------|
Bb|-------------------|-----------------|-----------------|-----------------|
Gb|----7-6-7-9-7-6-7--|--7-6-7-10-9-7---|--7-6-7-9-7-6-7--|-----------------|
Db|--7----------------|5--------------8-|7----------------|5\---------------|
Ab|-------------------|-----------------|-----------------|-----------------|
Db|-------------------|-----------------|-----------------|-----------------|





Verse (0:18)(1:16)

1. "Well I know, you don't know the reason..."
2. "Well it's gone, and it's not returning..."
Guitar 1:
eb|-------------------|-----------------|-----------------|-----------------|
Bb|-------------------|-----------------|-----------------|-----------------|
Gb|-------------------|-----------------|-----------------|-----------------|
Db|--4-4---44444-77---|5-5---55555-88---|4-4---44444-77---|5-5---55555-88---|
Ab|--0-0---00000-77---|5-5---55555-88---|0-0---00000-77---|5-5---55555-88---|
Db|--0-0---00000-77---|5-5---55555-88---|0-0---00000-77---|5-5---55555-88---|
p.m. .     ....  .     .     ....  .     .     ....  .     .     ....  .
Guitar 2:
eb|-------------------|-----------------|-----------------|-----------------|
Bb|-------------------|-----------------|-----------------|-----------------|
Gb|-------------------|-----------------|-----------------|-----------------|
Db|-------------------|-----------------|-----------------|-----------------|
Ab|-------------------|-----------------|-----------------|-----------------|
Db|-------------------|-----------------|-----------------|-----------------|

1. "'Cause you're old, and battered and beaten..."
2. "'Cause you're old, and battered and beaten..."
Guitar 1:
eb|-------------------|-----------------|-----------------|-----------------|
Bb|-------------------|-----------------|-----------------|-----------------|
Gb|-------------------|-----------------|-----------------|-----------------|
Db|--4-4---44444-77---|5-5---55555-88---|4-4---44444-77---|5-5-5-5-7-7-7-7--|
Ab|--0-0---00000-77---|5-5---55555-88---|0-0---00000-77---|5-5-5-5-7-7-7-7--|
Db|--0-0---00000-77---|5-5---55555-88---|0-0---00000-77---|5-5-5-5-7-7-7-7--|
p.m. .     ....  .     .     ....  .     .     ....  .     
Guitar 2:
eb|-------------------|-----------------|-----------------|-----------------|
Bb|-------------------|-----------------|-----------------|-----------------|
Gb|-------------------|-----------------|-----------------|-----------------|
Db|--4-4-4-4-4-4-7-7--|5-5-5-5-5-5-8-8--|4-4-4-4-4-4-7-7--|5-5-5-5-7-7-7-7--|
Ab|-------------------|-----------------|-----------------|-----------------|
Db|-------------------|-----------------|-----------------|-----------------|
p.m. . . . . . . . .   . . . . . . . .   . . . . . . . .   




Pre-Chorus (0:36)(1:34)(2:22)

1. "We'll all be better, get away..."
2. "We'll all be better, get away..."
3. "We'll all be better, get away..."
Guitar 1:
eb|-------------------|-----------------|-----------------|-----------------|
Bb|-------------------|-----------------|-----------------|-----------------|
Gb|------6-7-----6-7--|----6-7---6-7----|----6-7-----6-7--|----6-7-----6-7--|
Db|--9-9-----7-7------|5-5-----5--------|9-9-----7-7------|5-5-----5-5------|
Ab|--9-9-----7-7------|5-5-----5--------|9-9-----7-7------|5-5-----5-5------|
Db|--9-9-----7-7------|5-5-----5--------|9-9-----7-7------|5-5-----5-5------|
Guitar 2:
eb|-------------------|-----------------|-----------------|-----------------|
Bb|-------------------|-----------------|----5-7-----5-7--|----5-7-----5-7--|
Gb|-------------------|-----------------|-----------------|-----------------|
Db|-------------------|-----------------|-----------------|-----------------|
Ab|-------------------|-----------------|-----------------|-----------------|
Db|-------------------|-----------------|-----------------|-----------------|





Chorus (0:45)(1:43)(2:31)(2:49)

1. "You're covered in my skin, I couldn't imagine anyone else."
2. "You're covered in my skin, I couldn't imagine anyone else."
3. "You're covered in my skin, I couldn't imagine anyone else."
Guitar 1:
eb|-------------------|-----------------|-----------------|-----------------|
Bb|-------------------|-----------------|-----------------|-----------------|
Gb|-------------------|-----------------|-----------------|-----------------|
Db|--0-0-0-0-7-7-7-7--|5-5-5-5-5-5-5-5--|0-0-0-0-7-7-7-7--|5-5-5-5-5-5-5-5--|
Ab|--0-0-0-0-7-7-7-7--|5-5-5-5-5-5-5-5--|0-0-0-0-7-7-7-7--|5-5-5-5-5-5-5-5--|
Db|--0-0-0-0-7-7-7-7--|5-5-5-5-5-5-5-5--|0-0-0-0-7-7-7-7--|5-5-5-5-5-5-5-5--|
Guitar 2:
eb|-------------------|-----------------|-----------------|-----------------|
Bb|--7-8-10-8-7-8-10-7|7-8-10-8-7-8-10-7|7-8-10-8-7-8-10-7|7-8-10-8-7-8-10-7|
Gb|-------------------|-----------------|-----------------|-----------------|
Db|-------------------|-----------------|-----------------|-----------------|
Ab|-------------------|-----------------|-----------------|-----------------|
Db|-------------------|-----------------|-----------------|-----------------|

1. "I'm off for the weekend, I couldn't imagine why you would"
2. "I'm off for the weekend, I couldn't imagine why you would"
3. "I'm off for the weekend, I couldn't imagine why you would"
Guitar 1:
eb|-------------------|-----------------|-----------------|-----------------|
Bb|-------------------|-----------------|-----------------|-----------------|
Gb|-------------------|-----------------|-----------------|-----------------|
Db|--0-0-0-0-7-7-7-7--|5-5-5-5-5-5-5-5--|0-0-0-0-7-7-7-7--|5-5-5-5-5-5-5-5--|
Ab|--0-0-0-0-7-7-7-7--|5-5-5-5-5-5-5-5--|0-0-0-0-7-7-7-7--|5-5-5-5-5-5-5-5--|
Db|--0-0-0-0-7-7-7-7--|5-5-5-5-5-5-5-5--|0-0-0-0-7-7-7-7--|5-5-5-5-5-5-5-5--|
Guitar 2:
eb|-------------------|-----------------|-----------------|-----------------|
Bb|--7-8-10-8-7-8-10-8|7-8-10-8-7-8-10-8|7-8-10-8-7-8-10-8|7-8-10-8-7-8-10-8|
Gb|-------------------|-----------------|-----------------|-----------------|
Db|-------------------|-----------------|-----------------|-----------------|
Ab|-------------------|-----------------|-----------------|-----------------|
Db|-------------------|-----------------|-----------------|-----------------|


Chorus 1&2 End: (1:03)(2:00)

1. "save yourself."
2. "save yourself."
Guitar 1:
eb|-------------------|-----------------|
Bb|--5-5-5-5-5-5-5-5--|8-8-8-8--<7>-<7>-|
Gb|--4-4-4-4-4-4-4-4--|7-7-7-7<5>-<5>---|
Db|--2-2-2-2-2-2-2-2--|5-5-5-5----------|
Ab|--2-2-2-2-2-2-2-2--|5-5-5-5----------|
Db|--2-2-2-2-2-2-2-2--|5-5-5-5----------|
Guitar 2:
eb|-------------------|-----------------|
Bb|--7-8-10-8-7-8-10-8|7-8-10-8-7-8-10-8|
Gb|-------------------|-----------------|
Db|-------------------|-----------------|
Ab|-------------------|-----------------|
Db|-------------------|-----------------|





Pre-Verse: (1:07)

Guitar 1
eb|-------------------|-----------------|-----------------|-----------------|
Bb|-------------------|-----------------|-----------------|-----------------|
Gb|-------------------|-----------------|-----------------|-----------------|
Db|--4-4-xx-x4-4-x7---|5-5-xx-x5-5-x8---|4-4-xx-x4-4-x7---|5\---------------|
Ab|--0-0-xx-x0-0-x7---|5-5-xx-x5-5-x8---|0-0-xx-x0-0-x7---|5\---------------|
Db|--0-0-xx-x0-0-x7---|5-5-xx-x5-5-x8---|0-0-xx-x0-0-x7---|5\---------------|
Guitar 2:
eb|-------------------|-----------------|-----------------|-----------------|
Bb|-------------------|-----------------|-----------------|-----------------|
Gb|-------------------|-----------------|-----------------|-----------------|
Db|-------------------|-----------------|-----------------|-----------------|
Ab|-------------------|-----------------|-----------------|-----------------|
Db|-------------------|-----------------|-----------------|-----------------|





Solo: (2:05)

Guitar 1:
eb|-------------------|-----------------|-----------------|-----------------|
Bb|-------------------|-----------------|-----------------|-----------------|
Gb|-------------------|-----------------|-----------------|-----------------|
Db|--4-4-xx-x4-4-x7---|5-5-xx-x5-5-x8---|4-4-xx-x4-4-x7---|5-5-xx-x5-5-x8---|
Ab|--0-0-xx-x0-0-x7---|5-5-xx-x5-5-x8---|0-0-xx-x0-0-x7---|5-5-xx-x5-5-x8---|
Db|--0-0-xx-x0-0-x7---|5-5-xx-x5-5-x8---|0-0-xx-x0-0-x7---|5-5-xx-x5-5-x8---|
Guitar 2:
eb|-------------------|-----------------|-----------------|-----------------|
Bb|-------------------|-----------------|-----------------|-----------------|
Gb|--11----------14---|12----------15---|14----------18---|19----------21---|
Db|-------------------|-----------------|-----------------|-----------------|
Ab|---9----------12---|10----------13---|12----------16---|17----------19---|
Db|-------------------|-----------------|-----------------|-----------------|
     tremelo pick

Guitar 1:
eb|-------------------|-----------------|-----------------|-----------------|
Bb|-------------------|-----------------|-----------------|-----------------|
Gb|-------------------|-----------------|-----------------|-----------------|
Db|--4-4-xx-x4-4-x7---|5-5-xx-x5-5-x8---|4-4-xx-x4-4-x7---|5-5-5-5-7-7-7-7--|
Ab|--0-0-xx-x0-0-x7---|5-5-xx-x5-5-x8---|0-0-xx-x0-0-x7---|5-5-5-5-7-7-7-7--|
Db|--0-0-xx-x0-0-x7---|5-5-xx-x5-5-x8---|0-0-xx-x0-0-x7---|5-5-5-5-7-7-7-7--|
Guitar 2:
eb|-------------------|-----------------|-----------------|-----------------|
Bb|-------------------|-----------------|-----------------|-----------------|
Gb|--11----------14---|12----------15---|14----------18---|19------21-------|
Db|-------------------|-----------------|-----------------|-----------------|
Ab|---9----------12---|10----------13---|12----------16---|17------19-------|
Db|-------------------|-----------------|-----------------|-----------------|
     tremelo pick




Outro: (3:07)

1. "save yourself."
Guitar 1:
eb|-------------------|-----------------|
Bb|--5---------------/|8----------------|
Gb|--4---------------/|7----------------|
Db|--2---------------/|5----------------|
Ab|--2---------------/|5----------------|
Db|--2---------------/|5----------------|
                        (let ring)
Guitar 2:
eb|-------------------|-----------------|
Bb|-------------------|-----------------|
Gb|-------------------|-----------------|
Db|-------------------|-----------------|
Ab|-------------------|-----------------|
Db|-------------------|-----------------|





Song Order:

Intro        (0:00)
Verse 1      (0:18)
Pre-Chorus 1 (0:36)
Chorus 1     (0:45)
Chorus 1 End (1:03)
Pre-Verse 1  (1:07)
Verse 2      (1:16)
Pre-Chorus 2 (1:34)
Chorus 2     (1:43)
Chorus 2 End (2:00)
Solo         (2:05)
Pre-Chorus 3 (2:22)
Chorus 3     (2:31)
Chorus 4     (2:49)
Outro        (3:07)

5.NATURAL LIFE

Intro
Eb------------------------------------------------------
Bb------------------------------------------------------
Gb------------------------------------------------------
Db------------------------------------------------------
Ab-------7---8-------10---7-------8---5-------7---3-----
Db-0-0-0---0---0-0-0----0---0-0-0---0---0-0-0---0-------
 PM- - - - - - - - - -  - - - - - - - - - - - - - -

play 4x

Eb------------------------------------------------------------
Bb------------------------------------------------------------
Gb------------------------------------------------------------
Db------------------------------------------------------------
Ab-0-*-0-*-0-*-0-*---<5>---<5>-0-*-0-*-0-*-0-*---<5>---<5>----
Db-0-*-0-*-0-*-0-*-0-----0-----0-*-0-*-0-*-0-*-0-----0--------

Eb------------------------------------------------------------
Bb------------------------------------------------------------
Gb------------------------------------------------------------
Db------------------------------------------------------------
Ab-0-*-0-*-0-*-0-*---<5>-------0-*-0-*-0-*-0-*---<5>----------
Db-0-*-0-*-0-*-0-*-0-----0-<4>-0-*-0-*-0-*-0-*-0-----0-<4>----

Verse
Eb-------------------------------------------------------------------------
Bb-------------------------------------------------------------------------
Gb-------------------------------------------------------------------------
Db-------------------------------------------------------------------------
Ab---8-------8---8-------8---8-------8---8-------8---8-------8---8-------8-
Db-0---0-8-0---0---0-8-0---0---0-8-0---0---0-8-0---0---0-8-0---0---0-8-0---
 PM- - - - - - - - - - - - - - - - - - - - - - - - - - - - - -

Eb------------------------------------------------------
Bb------------------------------------------------------
Gb------------------------------------------------------
Db------------------------------------------------------
Ab------------------------------------------------------
Db-8-0-8-10-0-10-5-0-5-8-0-8----------------------------

play 2x (on second time gradually let up on the palm muting)

Chorus

Aaron Guitar Part 1
Eb------------------------------------------------------
Bb-6--6--6--8--8--8-------------------------------------
Gb-5--5--5--7--7--7--10-10-10-10-10-10-101010-10-10-10--
Db-3--3--3--5--5--5--x--x--x--10-10-10-8-8-8--10-10-10--
Ab-3--3-030-5--5-050-8--8--8--10-10-10-8-8-8--10-10-10--
Db-3--3-030-5--5-050----------10-10-10-8-8-8--10-10-10--

Ben Guitar Part 1
Eb------------------------------------------------------
Bb------------------------------------------------------
Gb-5--5--5--7--7--7------555-333-555--------------------
Db-3--3--3--5--5--5--333-555-111-555--------------------
Ab-3--3-030-5--5-050-333-333-111-333--------------------
Db-3--3-030-5--5-050-333--------------------------------

Aaron Guitar Part 2
Eb------------------------------------------------------
Bb-6--6--6--8--8--8-------------------------------------
Gb-5--5--5--7--7--7--101010-999-777-999-----------------
Db-3--3--3--5--5--5--x-x-x--xxx-xxx-xxx-----------------
Ab-3--3-030-5--5-050-8-8-8--777-555-777-----------------
Db-3--3-030-5--5-050------------------------------------

Ben Guitar Part 2
Eb------------------------------------------------------
Bb------------------------------------------------------
Gb-5--5--5--7--7--7------555-333-555--------------------
Db-3--3--3--5--5--5--333-555-111-555--------------------
Ab-3--3-030-5--5-050-333-333-111-333--------------------
Db-3--3-030-5--5-050-333--------------------------------

Aaron Guitar Part 3
Eb------------------------------------------------------
Bb-6-*-6-6--8-*-8-8-------------------------------------
Gb-5-*-5-5--7-*-7-7--10-10-10-10-10-10-101010-10-10-10--
Db-3-*-3-3--5-*-5-5--x--x--x--10-10-10-8-8-8--10-10-10--
Ab-3-*-3030-5-*-5050-8--8--8--10-10-10-8-8-8--10-10-10--
Db-3-*-3030-5-*-5050----------10-10-10-8-8-8--10-10-10--

Ben Guitar Part 3
Eb------------------------------------------------------
Bb------------------------------------------------------
Gb-5-*-5-5--7-*-7-7------555-333-555--------------------
Db-3-*-3-3--5-*-5-5--333-555-111-555--------------------
Ab-3-*-3030-5-*-5050-333-333-111-333--------------------
Db-3-*-3030-5-*-5050-333--------------------------------

Aaron Guitar Part 4
Eb------------------------------------------------------
Bb-6--6--6--8--8--8--------------------10---------------
Gb-5--5--5--7--7--7--10-10-10-10-10-10-10---------------
Db-3--3--3--5--5--5--x--x--x--10-10-10-8----------------
Ab-3--3-030-5--5-050-8--8--8--10-10-10-8----------------
Db-3--3-030-5--5-050----------10-10-10-8----------------

Ben Guitar Part 4
Eb------------------------------------------------------
Bb------------------------------------------------------
Gb-5--5--5--7--7--7------555-3--------------------------
Db-3--3--3--5--5--5--333-555-1--------------------------
Ab-3--3-030-5--5-050-333-333-1--------------------------
Db-3--3-030-5--5-050-333--------------------------------

Eb------------------------------------------------------------
Bb------------------------------------------------------------
Gb------------------------------------------------------------
Db------------------------------------------------------------
Ab-0-*-0-*-0-*-0-*---<5>---<5>-0-*-0-*-0-*-0-*---<5>---<5>----
Db-0-*-0-*-0-*-0-*-0-----0-----0-*-0-*-0-*-0-*-0-----0--------

Eb------------------------------------------------------------
Bb------------------------------------------------------------
Gb------------------------------------------------------------
Db------------------------------------------------------------
Ab-0-*-0-*-0-*-0-*---<5>-------0-*-0-*-0-*-0-*---<5>----------
Db-0-*-0-*-0-*-0-*-0-----0-<4>-0-*-0-*-0-*-0-*-0-----0-<4>----

Verse

Chorus

Break
Eb------------------------------------------------------
Bb----------------------------------------------5/6-----
Gb-------------------5--------7----5------------5/7-----
Db-0-----------------3--------5----3---0----------------
Ab-0-----------------3--------5----3---0----------------
Db-0-----------------3--------5----3---0----------------

Eb----------------------------------------------------------------------------
Bb----------------------------------------------------------------------------
Gb-5--------7---------5-------------------------------------------------------
Db-3--------5---------3-------------2-----------2-----------2-----------2-----
Ab-3--------5---------3---------3-0---------3-0---------3-0---------3-0-------
Db-3--------5---------3---0-3-0-------0-3-0-------0-3-0-------0-3-0-----------
                        PM- - - - - - - - - - - - - - - - - - - - - - - -

Eb------------------------------------------------------
Bb------------------------------------------------------
Gb------------------------------------------------------
Db-----------2-----------2-----------2-----------2------
Ab-------3-0---------3-0---------3p0---------3p0--------
Db-0-3-0-------0-3-0-------0-3p0-------0-3p0------------
 PM- - - - - - - - - - - - gradually lighten up the tension on the 7th and 8th times
                           and begin to play normally

Eb------------------------------------------------------
Bb------------------------------------------------------
Gb------------------------------------------------------
Db------------------------------------------------------
Ab-------7---8-------10---7-------8---5-------7---3-----
Db-0-0-0---0---0-0-0----0---0-0-0---0---0-0-0---0-------

play twice

Aaron's Guitar Part
Eb------------------------------------------------------
Bb------------------------------------------------------
Gb------------------------------------------------------
Db-------9---10------12---9-------10--7-------9---5-----
Ab-------7---8-------10---7-------8---5-------7---3-----
Db-0-0-0---0---0-0-0----0---0-0-0---0---0-0-0---0-------

Ben's Guitar Part
Eb------------------------------------------------------
Bb------------------------------------------------------
Gb------------------------------------------------------
Db------------------------------------------------------
Ab------*7--*8------*10--*7------*8--*5------*7--*3-----
Db-0-0-0---0---0-0-0----0---0-0-0---0---0-0-0---0-------
* = slight harmonic with a slight bend

play twice

Aaron's Guitar Part
Eb------------------------------------------------------
Bb------------------------------------------------------
Gb------------------------------------------------------
Db-----2/333-222---------2/333-222----------------------
Ab-111-----------330-111-----------330------------------
Db------------------------------------------------------

Ben's Guitar Part
Eb------------------------------------------------------
Bb------------------------------------------------------
Gb------------------------------------------------------
Db-333-101010-999-555-333-101010-999-555----------------
Ab-111-8-8-8--777-333-111-8-8-8--777-333----------------
Db------------------------------------------------------

Both Guitar Parts
Eb------------------------------------------------------
Bb------------------------------------------------------
Gb-5/7-77-----10\7---5/7--------------------------------
Db-5/7-77-----10\7---5/5--------------------------------
Ab-3/5-55-000-8-\5---3/5--------------------------------
Db--------000------0-----0------------------------------
        PM---
then

Aaron's Guitar Part
Eb------------------------------------------------------
Bb------------------------------------------------------
Gb------------------------------------------------------
Db-----2/333-222----------------------------------------
Ab-111-----------330------------------------------------
Db------------------------------------------------------

Ben's Guitar Part
Eb------------------------------------------------------
Bb------------------------------------------------------
Gb------------------------------------------------------
Db-333-101010-999-555-----------------------------------
Ab-111-8-8-8--777-333-----------------------------------
Db------------------------------------------------------

Both Guitar Parts
Eb------------------------------------------------------
Bb------------------------------------------------------
Gb-5/7-77-----10\7---5/7--------------------------------
Db-5/7-77-----10\7---5/5--------------------------------
Ab-3/5-55-000-8-\5---3/5--------------------------------
Db--------000------0-----0------------------------------
        PM---

Aaron's Guitar Part
Eb------------------------------------------------------
Bb------------------------------------------------------
Gb------------------------------------------------------
Db-----2/333-222----------------------------------------
Ab-111-----------330------------------------------------
Db------------------------------------------------------

Ben's Guitar Part
Eb------------------------------------------------------
Bb------------------------------------------------------
Gb------------------------------------------------------
Db-333-101010-999-555-----------------------------------
Ab-111-8-8-8--777-333-----------------------------------
Db------------------------------------------------------

Both Guitar Parts
Eb------------------------------------------------------
Bb------------------------------------------------------
Gb-5/7-77-----10\7---5/7--------------------------------
Db-5/7-77-----10\7---5/5--------------------------------
Ab-3/5-55-000-8-\5---3/5--------------------------------
Db--------000------0-----0------------------------------
        PM---

Aaron's Guitar Part
Eb------------------------------------------------------
Bb------------------------------------------------------
Gb------------------------------------------------------
Db-----2/333-222---------2/333-2-*-2-*-22---------------
Ab-111-----------330-111-------3-*-3-*-33---------------
Db------------------------------------------------------

Ben's Guitar Part
Eb------------------------------------------------------
Bb------------------------------------------------------
Gb------------------------------------------------------
Db-333-101010-999-555-333-101010-2-*-2-*-22-------------
Ab-111-8-8-8--777-333-111-8-8-8--3-*-3-*-33-------------
Db------------------------------------------------------

Chorus

Eb------------------------------------------------------------
Bb------------------------------------------------------------
Gb------------------------------------------------------------
Db------------------------------------------------------------
Ab-0-*-0-*-0-*-0-*---<5>---<5>-0-*-0-*-0-*-0-*---<5>---<5>----
Db-0-*-0-*-0-*-0-*-0-----0-----0-*-0-*-0-*-0-*-0-----0--------

Eb------------------------------------------------------------
Bb------------------------------------------------------------
Gb------------------------------------------------------------
Db------------------------------------------------------------
Ab-0-*-0-*-0-*-0-*---<5>-------0-*-0-*-0-*-0-*---<5>----------
Db-0-*-0-*-0-*-0-*-0-----0-<4>-0-*-0-*-0-*-0-*-0-----0-<4>----

Outro
Eb-------------------------------------------------------------------
Bb-------------------------------------------------------------------
Gb-------------------------------------------------------------------
Db-------------------------------------------------------------------
Ab-------------5p0-5-------------5p0-5-------------5p0-5---------0-*-
Db-0xx-0xx-0xx-------0xx-0xx-0xx-------0xx-0xx-0xx-------0xx-0xx-0-*-

6.NEXT TO NOTHING

Tuning (low to high):  Db, Ab, Db, Gb, Bb, Eb


Intro (clean tone)
Eb|-0--------------0--------------|------------------------------|
Bb|-5--------------5--------------|------------------------------|
Gb|-4--------------4--------------|------------------------------|
Dd|-2--------------2--------------|-6--------------6--------6--0-|
Ad|-4--------------0--------------|-4--------------4--------4--0-|
Dd|-------------------------------|-4--------------4--------4----|

Eb|-0--------------0--------------|------------------------------|
Bb|-5--------------5--------------|------------------------------|
Gb|-4--------------4--------------|------------------------------|
Dd|-2--------------2--------------|-6--------------6--------6--0-|
Ad|-4--------------0--------------|-4--------------4--------4--0-|
Dd|-------------------------------|-4--------------4--------4----|

       "Beneath this..."
Eb|-0--------------0--------------|------------------------------|
Bb|-5--------------5--------------|------------------------------|
Gb|-4--------------4--------------|------------------------------|
Dd|-2--------------2--------------|-6--------------6--------6--0-|
Ad|-4--------------0--------------|-4--------------4--------4--0-|
Dd|-------------------------------|-4--------------4--------4----|

Eb|-0--------------0-------------|--------0----------------------|
Bb|-5--------------5-------------|------------0------------------|
Gb|-4--------------4-------------|-------------------------------|
Dd|-2--------------2-------------|-6---------------------6-------|
Ad|-4--------------0-------------|-4-------------------------4---|
Dd|------------------------------|-4-----------------------------|

Eb|-0--------------0--------------|------------------------------|
Bb|-5--------------5--------------|------------------------------|
Gb|-4--------------4--------------|------------------------------|
Dd|-2--------------2--------------|-6--------------6--------6--0-|
Ad|-4--------------0--------------|-4--------------4--------4--0-|
Dd|-------------------------------|-4--------------4--------4----|

Eb|-0--------------0-------------|-------------------------------|
Bb|-5--------------5-------------|-------------------------------|
Gb|-4--------------4-------------|-------------------------------|
Dd|-2--------------2-------------|-6-------------(6)-------------|
Ad|-4--------------0-------------|-4-------------(4)-------------|
Dd|------------------------------|-4-------------(4)-------------|

Verse (00:27)  "You cut me down..."
Eb|-0--------------0--------------|------------------------------|
Bb|-5--------------5--------------|------------------------------|
Gb|-4--------------4--------------|------------------------------|
Dd|-2--------------2--------------|-6--------------6--------6--0-|
Ad|-4--------------0--------------|-4--------------4--------4--0-|
Dd|-------------------------------|-4--------------4--------4----|

Eb|-0--------------0--------------|------------------------------|
Bb|-5--------------5--------------|------------------------------|
Gb|-4--------------4--------------|------------------------------|
Dd|-2--------------2--------------|-6--------------6--------6--0-|
Ad|-4--------------0--------------|-4--------------4--------4--0-|
Dd|-------------------------------|-4--------------4--------4----|

Eb|-0--------------0--------------|------------------------------|
Bb|-5--------------5--------------|------------------------------|
Gb|-4--------------4--------------|------------------------------|
Dd|-2--------------2--------------|-6--------------6--------6--0-|
Ad|-4--------------0--------------|-4--------------4--------4--0-|
Dd|-------------------------------|-4--------------4--------4----|

Eb|-0--------------0--------------|------------------------------|
Bb|-5--------------5--------------|------------------------------|
Gb|-4--------------4--------------|------------------------------|
Dd|-2--------------2--------------|-6---------6--6--6--6--6------|
Ad|-4--------------0--------------|-4---------4--4--4--4--4--x-x-|
Dd|-------------------------------|-4---------4--4--4--4--4--x-x-|

Prechorus (00:45) "Come and take..."
     Guitar 1  (w/ distortion)
Eb|-------------------------------|-------------------------------|
Bb|-------------------------------|-------------------------------|
Gb|-2---2---2---2---2---2---2---2-|-4---4---4---4---4---4---4---4-|
Dd|-2---2---2---2---2---2---2---2-|-4---4---4---4---4---4---4---4-|
Ad|-0---0---0---0---0---0---0---0-|-2---2---2---2---2---2---2---2-|
Dd|-------------------------------|-------------------------------|
    pm  pm  pm  pm  pm  pm  pm  pm  pm  pm  pm  pm  pm  pm  pm  pm
Eb|-------------------------------|-------------------------------|
Bb|-------------------------------|-------------------------------|
Gb|-2---2---2---2---2---2---2---2-|-4---4---4---4---4---4---4---4-|
Dd|-2---2---2---2---2---2---2---2-|-4---4---4---4---4---4---4---4-|
Ad|-0---0---0---0---0---0---0---0-|-2---2---2---2---2---2---2---2-|
Dd|-------------------------------|-------------------------------|
    pm  pm  pm  pm  pm  pm  pm  pm  pm  pm  pm  pm  pm

    Guitar 2 (clean tone)
Eb|-0------------0----------------|-2-----------2-----------------|
Bb|--------------0----------------|-----2--------------2-------2--|
Gb|-----4--------4------4-------4-|---------4--------------4------|
Dd|----------2--------------2-----|-------------------------------|
Ad|-------------------------------|-------------------------------|
Dd|-------------------------------|-------------------------------|

Eb|-0------------0----------------|-2-----------2--------------2--|
Bb|--------------0----------------|-----2--------------2-------2--|
Gb|-----4--------4------4-------4-|---------4--------------4---4--|
Dd|----------2--------------2-----|-------------------------------|
Ad|-------------------------------|-------------------------------|
Dd|-------------------------------|-------------------------------|

Chorus (00:53)   "Cause I know its..."
Eb|-------------------------------|-------------------------------|
Bb|-------------------------------|-------------------------------|
Gb|-------------------------------|-6-----6--6-----4-----4--4--4--|
Dd|-2-----2--2-----7-----7--7--7--|-6-----6--6-----4-----4--4--4--|
Ad|-2-----2--2-----7-----7--7--7--|-4-----4--4-----2-----2--2--2--|
Dd|-2-----2--2-----7-----7--7--7--|-------------------------------|

Eb|-------------------------------|-------------------------------|
Bb|-------------------------------|-------------------------------|
Gb|-------------------------------|-6-----6--6-----4-----4--4--4--|
Dd|-2-----2--2-----7-----7--7--7--|-6-----6--6-----4-----4--4--4--|
Ad|-2-----2--2-----7-----7--7--7--|-4-----4--4-----2-----2--2--2--|
Dd|-2-----2--2-----7-----7--7--7--|-------------------------------|

Eb|-------------------------------|-------------------------------|
Bb|-------------------------------|-------------------------------|
Gb|-------------------------------|-6-----6--6-----4-----4--4--4--|
Dd|-2-----2--2-----7-----7--7--7--|-6-----6--6-----4-----4--4--4--|
Ad|-2-----2--2-----7-----7--7--7--|-4-----4--4-----2-----2--2--2--|
Dd|-2-----2--2-----7-----7--7--7--|-------------------------------|

Eb|-------------------------------|-------------------------------|
Bb|-------------------------------|-------------------------------|
Gb|-------------------------------|-6-----6--6-----4-----4--4--4--|
Dd|-2-----2--2-----7-----7--7--7--|-6-----6--6-----4-----4--4--4--|
Ad|-2-----2--2-----7-----7--7--7--|-4-----4--4-----2-----2--2--2--|
Dd|-2-----2--2-----7-----7--7--7--|-------------------------------|

Eb|-------------------------------|-------------------------------|
Bb|-------------------------------|-------------------------------|
Gb|-2---2---2---2---2---2---2---2-|-------------------------------|
Dd|-2---2---2---2---2---2---2---2-|-4---4---4---4---4---4---4---4-|
Ad|-0---0---0---0---0---0---0---0-|-4---4---4---4---4---4---4---4-|
Dd|-------------------------------|-4---4---4---4---4---4---4---4-|

Back to verse

Guitar 2 (01:17) *play over verse rhythm after first chorus
    *w/ distortion
Eb|-0--------------(0)------------|----------------(0)------------|
Bb|-5--------------(5)------------|----------------(5)------------|
Gb|-4--------------(4)------------|----------------(4)------------|
Dd|-2--------------(2)------------|----------------(2)------------|
Ad|-4--------------(4)------------|----------------(4)------------|
Dd|-------------------------------|-------------------------------|

Eb|-(0)---------------------------|-------------------------------|
Bb|-(5)\2----------(2)------------|-(2)---------------------------|
Gb|-(4)---------------------------|-------------------------------|
Dd|-(2)---------------------------|-------------------------------|
Ad|-(4)---------------------------|-------------------------------|
Dd|-------------------------------|-------------------------------|
	                                   *feedback

Chorus II (01:52)
Eb|-------------------------------|-------------------------------|
Bb|-------------------------------|-------------------------------|
Gb|-------------------------------|-6-----6--6-----4-----4--4--4--|
Dd|-2-----2--2-----7-----7--7--7--|-6-----6--6-----4-----4--4--4--|
Ad|-2-----2--2-----7-----7--7--7--|-4-----4--4-----2-----2--2--2--|
Dd|-2-----2--2-----7-----7--7--7--|-------------------------------|

Eb|-------------------------------|-------------------------------|
Bb|-------------------------------|-------------------------------|
Gb|-------------------------------|-6-----6--6-----4-----4--4--4--|
Dd|-2-----2--2-----7-----7--7--7--|-6-----6--6-----4-----4--4--4--|
Ad|-2-----2--2-----7-----7--7--7--|-4-----4--4-----2-----2--2--2--|
Dd|-2-----2--2-----7-----7--7--7--|-------------------------------|

Eb|-------------------------------|-------------------------------|
Bb|-------------------------------|-------------------------------|
Gb|-------------------------------|-6-----6--6-----4-----4--4--4--|
Dd|-2-----2--2-----7-----7--7--7--|-6-----6--6-----4-----4--4--4--|
Ad|-2-----2--2-----7-----7--7--7--|-4-----4--4-----2-----2--2--2--|
Dd|-2-----2--2-----7-----7--7--7--|-------------------------------|

Eb|-------------------------------|-------------------------------|
Bb|-------------------------------|-------------------------------|
Gb|-------------------------------|-6-----6--6-----4-----4--4--4--|
Dd|-2-----2--2-----7-----7--7--7--|-6-----6--6-----4-----4--4--4--|
Ad|-2-----2--2-----7-----7--7--7--|-4-----4--4-----2-----2--2--2--|
Dd|-2-----2--2-----7-----7--7--7--|-------------------------------|

Eb|-------------------------------|-------------------------------|
Bb|-------------------------------|-------------------------------|
Gb|-------------------------------|-------------------------------|
Dd|-7------7------7-----7/9-------|-7------7------7------9------6-|
Ad|-7------7------7-----7/9-------|-7------7------7------9------6-|
Dd|-7------7------7-----7/9-------|-7------7------7------9------6-|

Eb|-------------------------------|-------------------------------|
Bb|-------------------------------|-------------------------------|
Gb|-------------------------------|-------------------------------|
Dd|-7------7------7-----7/9-------|-7------7------7------9------6-|
Ad|-7------7------7-----7/9-------|-7------7------7------9------6-|
Dd|-7------7------7-----7/9-------|-7------7------7------9------6-|

    Guitar 1 (02:19)
Eb|-------------------------------|-------------------------------|
Bb|-------------------------------|-------------------------------|
Gb|-------------------------------|-------------------------------|
Dd|-7------7------7-----7/9-------|-7------7------7------9------6-|
Ad|-7------7------7-----7/9-------|-7------7------7------9------6-|
Dd|-7------7------7-----7/9-------|-7------7------7------9------6-|

Eb|-------------------------------|-------------------------------|
Bb|-------------------------------|-------------------------------|
Gb|-------------------------------|-------------------------------|
Dd|-----7-----7-----7-x-x-9-------|-7------7------7------9------6-|
Ad|-----7-----7-----7-x-x-9-------|-7------7------7------9------6-|
Dd|-----7-----7-----7-x-x-9-------|-7------7------7------9------6-|

    Guitar 2 (02:19)
Eb|-------------------------------|-------------------------------|
Bb|-5------5------5-----5-7-------|-5------5------5------7------4-|
Gb|-4------4------4-----4-6-------|-4------4------4------6------3-|
Dd|-7------7------7-----7-9-------|-7------7------7------9------6-|
Ad|-0------0------0-----0-0-------|-0------0------0------0--------|
Dd|-------------------------------|-------------------------------|

Eb|-------------------------------|-------------------------------|
Bb|-----5-----5-----5-----7-------|-5-------5-------5-----7-----4-|
Gb|-----4-----4-----4-----6-------|-4-------4-------4-----6-----3-|
Dd|-----7-----7-----7-x-x-9-------|-7-------7-------7-----9-----6-|
Ad|-----0-----0-----0-x-x-0-------|-0-------0-------0-----0-------|
Dd|-------------------------------|-------------------------------|

Solo (02:28)
Eb|-------------------------------|-------------------------------|
Bb|-5---5--5--5/7------7----7-----|-/10-----9---9-------------4---|
Gb|-------------------------------|------------------4------------|
Dd|-------------------------------|-------------------------------|
Ad|-------------------------------|-------------------------------|
Dd|-------------------------------|-------------------------------|
    *play 4x

Chorus III (02:46)
Eb|-------------------------------|-------------------------------|
Bb|-------------------------------|-------------------------------|
Gb|-------------------------------|-6-----6--6-----4-----4--4--4--|
Dd|-2-----2--2-----7-----7--7--7--|-6-----6--6-----4-----4--4--4--|
Ad|-2-----2--2-----7-----7--7--7--|-4-----4--4-----2-----2--2--2--|
Dd|-2-----2--2-----7-----7--7--7--|-------------------------------|

Eb|-------------------------------|-------------------------------|
Bb|-------------------------------|-------------------------------|
Gb|-------------------------------|-6-----6--6-----4-----4--4--4--|
Dd|-2-----2--2-----7-----7--7--7--|-6-----6--6-----4-----4--4--4--|
Ad|-2-----2--2-----7-----7--7--7--|-4-----4--4-----2-----2--2--2--|
Dd|-2-----2--2-----7-----7--7--7--|-------------------------------|

Eb|-------------------------------|-------------------------------|
Bb|-------------------------------|-------------------------------|
Gb|-------------------------------|-6-----6--6-----4-----4--4--4--|
Dd|-2-----2--2-----7-----7--7--7--|-6-----6--6-----4-----4--4--4--|
Ad|-2-----2--2-----7-----7--7--7--|-4-----4--4-----2-----2--2--2--|
Dd|-2-----2--2-----7-----7--7--7--|-------------------------------|

Eb|-------------------------------|-------------------------------|
Bb|-------------------------------|-------------------------------|
Gb|-------------------------------|-6-----6--6-----4-----4--4--4--|
Dd|-2-----2--2-----7-----7--7--7--|-6-----6--6-----4-----4--4--4--|
Ad|-2-----2--2-----7-----7--7--7--|-4-----4--4-----2-----2--2--2--|
Dd|-2-----2--2-----7-----7--7--7--|-------------------------------|

Eb|-------------------------------|-------------------------------|
Bb|-------------------------------|-------------------------------|
Gb|-------------------------------|-------------------------------|
Dd|-7---7---7---7---7---7---7---7-|-9---9---9---9---9---9---9---9-|
Ad|-7---7---7---7---7---7---7---7-|-9---9---9---9---9---9---9---9-|
Dd|-7---7---7---7---7---7---7---7-|-9---9---9---9---9---9---9---9-|

Eb|-------------------------------|-------------------------------|
Bb|-------------------------------|-------------------------------|
Gb|-------------------------------|-------------------------------|
Dd|-7---7---7---7---7---7---7---7-|-4---4---4---4---4---4---4---4-|
Ad|-7---7---7---7---7---7---7---7-|-4---4---4---4---4---4---4---4-|
Dd|-7---7---7---7---7---7---7---7-|-4---4---4---4---4---4---4---4-|

Outro (03:13)
    Guitar 1
Eb|-------------------------------|-------------------------------|
Bb|-------------------------------|-------------------------------|
Gb|-6-----------------------------|-------------------------------|
Dd|-6------------7----------------|-4-----------------------------|
Ad|-4------------7----------------|-4-----------------------------|
Dd|--------------7----------------|-4-----------------------------|

Eb|-------------------------------|-------------------------------|
Bb|-------------------------------|-------------------------------|
Gb|-6-----------------------------|-------------------------------|
Dd|-6------------7----------------|-4-----------------------------|
Ad|-4------------7----------------|-4-----------------------------|
Dd|--------------7----------------|-4-----------------------------|

Eb|-------------------------------|-------------------------------|
Bb|-------------------------------|-------------------------------|
Gb|-6-----------------------------|-------------------------------|
Dd|-6------------7----------------|-4------------------------x--x-|
Ad|-4------------7----------------|-4------------------------x--x-|
Dd|--------------7----------------|-4------------------------x--x-|

Eb|-------------------------------|-------------------------------|
Bb|-------------------------------|-------------------------------|
Gb|---6---------------------------|-------------------------------|
Dd|-x-6----------7----------------|-4-----------------------------|
Ad|-x-4----------7----------------|-4-----------------------------|
Dd|-x------------7----------------|-4-----------------------------|

    Guitar 2
Eb|-------------------------------|-------------------------------|
Bb|-6h7-7/9-----------7------7----|-------------------------------|
Gb|-------------------------------|-4---6-------------------------|
Dd|-------------------------------|-------------------------------|
Ad|-------------------------------|-------------------------------|
Dd|-------------------------------|-------------------------------|

Eb|-------------------------------|-------------------------------|
Bb|-6h7-7/9-----------7----6----7-|--7/9--------------------------|
Gb|-------------------------------|-------------------------------|
Dd|-------------------------------|-------------------------------|
Ad|-------------------------------|-------------------------------|
Dd|-------------------------------|-------------------------------|

Eb|-------------------------------|-------------------------------|
Bb|-6h7-7/9-----------7------7----|--------------------------x--x-|
Gb|-------------------------------|-4---6--------------------x--x-|
Dd|-------------------------------|--------------------------x--x-|
Ad|-------------------------------|-------------------------------|
Dd|-------------------------------|-------------------------------|

Eb|-------------------------------|-------------------------------|
Bb|-x---7/9-----------7----6------|---/9--------------------------|
Gb|-x-----------------------------|-------------------------------|
Dd|-x-----------------------------|-------------------------------|
Ad|-------------------------------|-------------------------------|
Dd|-------------------------------|-------------------------------|

7.WATER

Tuning (low to high):  Db, Ab, Db, Gb, Bb, Eb


Intro (00:12)
Eb|-------------------------------|-------------------------------|
Bb|-------------------------------|-------------------------------|
Gb|-3p2-3p2-2-----2-------2-----2-|-3p2-3p2-2-----2-------2-----2-|
Dd|------------0-------0-----0----|------------0-------0-----0----|
Ad|-------------------------------|-------------------------------|
Dd|-------------------------------|-------------------------------|

Eb|-------------------------------|-------------------------------|
Bb|-------------------------------|-----------------------3-------|
Gb|-3p2-3p2-2-----2-------2-----2-|-3p2-3p2-2-----2---------------|
Dd|------------0-------0-----0----|------------0-------0----------|
Ad|-------------------------------|-------------------------------|
Dd|-------------------------------|-------------------------------|

Eb|-------------------------------|-------------------------------|
Bb|-------------------------------|-------------------------------|
Gb|-----------------------------3-|----------------------------3--|
Dd|-1p0--0--0--1p0--0--0--1p0---3-|-1p0--0--0--1p0--0--0--1p0--3--|
Ad|-1p0--0--0--1p0--0--0--1p0---1-|-1p0--0--0--1p0--0--0--1p0--1--|
Dd|-1p0--0--0--1p0--0--0--1p0-----|-1p0--0--0--1p0--0--0--1p0-----|

Eb|-------------------------------|-------------------------------|
Bb|-------------------------------|-------------------------------|
Gb|-(3)-------------------------3-|-----------------------7--6--5-|
Dd|-(3)-0-0-0--1p0--0--0--1p0---3-|-1p0--0--0--1p0--0--0--7--6--5-|
Ad|-(1)-0-0-0--1p0--0--0--1p0---1-|-1p0--0--0--1p0--0--0--5--4--3-|
Dd|-----0-0-0--1p0--0--0--1p0-----|-1p0--0--0--1p0--0--0----------|

Eb|-------------------------------|-------------------------------|
Bb|-------------------------------|-------------------------------|
Gb|-----------------------------3-|----------------------------3--|
Dd|-1p0--0--0--1p0--0--0--1p0---3-|-1p0--0--0--1p0--0--0--1p0--3--|
Ad|-1p0--0--0--1p0--0--0--1p0---1-|-1p0--0--0--1p0--0--0--1p0--1--|
Dd|-1p0--0--0--1p0--0--0--1p0-----|-1p0--0--0--1p0--0--0--1p0-----|

Eb|-------------------------------|-------------------------------|
Bb|-------------------------------|----------------------------3--|
Gb|-(3)-------------------------3-|-------------------------------|
Dd|-(3)-0-0-0--1p0--0--0--1p0---3-|-1p0--0--0--1p0--0--0----------|
Ad|-(1)-0-0-0--1p0--0--0--1p0---1-|-1p0--0--0--1p0--0--0----------|
Dd|-----0-0-0--1p0--0--0--1p0-----|-1p0--0--0--1p0--0--0--0-0-----|
                                                         pm pm ah

Verse (00:47)  "What's all this talk..."
Eb|-------------------------------|-------------------------------|
Bb|-----------------------------3-|-----------------------------3-|
Gb|-----------------------------5-|-----------------------------5-|
Dd|-1-0--0--0---1-0--0--0---1-0---|-1-0--0--0---1-0--0--0---1-0---|
Ad|-1-0--0--0---1-0--0--0---1-0---|-1-0--0--0---1-0--0--0---1-0---|
Dd|-1-0--0--0---1-0--0--0---1-0---|-1-0--0--0---1-0--0--0---1-0---|
    pmpm pm pm  pmpm pm pm  pmpmah  pmpm pm pm  pmpm pm pm  pmpmah
Eb|-------------------------------|-------------------------------|
Bb|-----------------------------3-|-------------------------------|
Gb|-----------------------------5-|-----------------------------3-|
Dd|-1-0--0--0---1-0--0--0---1-0---|-1-0--0--0---1-0--0--0--1p0--3-|
Ad|-1-0--0--0---1-0--0--0---1-0---|-1-0--0--0---1-0--0--0--1p0--1-|
Dd|-1-0--0--0---1-0--0--0---1-0---|-1-0--0--0---1-0--0--0--1p0----|
    pmpm pm pm  pmpm pm pm  pmpmah    pmpm pm pm  pmpm

Eb|-------------------------------|-------------------------------|
Bb|-------------------------------|-------------------------------|
Gb|-----------------------------3-|----------------------------3--|
Dd|-1p0--0--0--1p0--0--0--1p0---3-|-1p0--0--0--1p0--0--0--1p0--3--|
Ad|-1p0--0--0--1p0--0--0--1p0---1-|-1p0--0--0--1p0--0--0--1p0--1--|
Dd|-1p0--0--0--1p0--0--0--1p0-----|-1p0--0--0--1p0--0--0--1p0-----|

Eb|-------------------------------|-------------------------------|
Bb|-------------------------------|--------------------3----------|
Gb|-----------------------------3-|-------------------------------|
Dd|-1p0--0--0--1p0--0--0--1p0---3-|-1p0--0--0--1p0--0-------------|
Ad|-1p0--0--0--1p0--0--0--1p0---1-|-1p0--0--0--1p0--0-------------|
Dd|-1p0--0--0--1p0--0--0--1p0-----|-1p0--0--0--1p0--0-------------|
						       a.h.

Prechorus (01:09)  "I won't ever let..."
Eb|-------------------------------|-------------------------------|
Bb|-------------------------------|-------------------------------|
Gb|-7---7---7---7---7---7---7---7-|-8---8---8---8\----3/----8-----|
Dd|-7---7---7---7---7---7---7---7-|-8---8---8---8\----3/----8-----|
Ad|-5---5---5---5---5---5---5---5-|-6---6---6---6\----1/----6-----|
Dd|-------------------------------|-------------------------------|

Eb|-------------------------------|-------------------------------|
Bb|-------------------------------|--------------------3----------|
Gb|-----------------------------3-|-------------------------------|
Dd|-1p0--0--0--1p0--0--0--1p0---3-|-1p0--0--0--1p0--0-------------|
Ad|-1p0--0--0--1p0--0--0--1p0---1-|-1p0--0--0--1p0--0-------------|
Dd|-1p0--0--0--1p0--0--0--1p0-----|-1p0--0--0--1p0--0-------------|
						       a.h.

Eb|-------------------------------|-------------------------------|
Bb|-------------------------------|-------------------------------|
Gb|-7---7---7---7---7---7---7---7-|-10--10--10--10\----3/---8-----|
Dd|-7---7---7---7---7---7---7---7-|-10--10--10--10\----3/---8-----|
Ad|-5---5---5---5---5---5---5---5-|--8---8---8---8\----1/---6-----|
Dd|-------------------------------|-------------------------------|

Chorus (01:25)  "Cause I am..."
Eb|-------------------------------|-------------------------------|
Bb|-------------------------------|-------------------------------|
Gb|3-3-3-3-3-3-3-3-5-5-5-5-5-5-5-5|7-7-7-7-7-7-7-7----------------|
Dd|3-3-3-3-3-3-3-3-5-5-5-5-5-5-5-5|7-7-7-7-7-7-7-7-1------3-------|
Ad|1-1-1-1-1-1-1-1-3-3-3-3-3-3-3-3|5-5-5-5-5-5-5-5-1------3-------|
Dd|-------------------------------|----------------1------3-------|

Eb|-------------------------------|-------------------------------|
Bb|-------------------------------|-------------------------------|
Gb|3-3-3-3-3-3-3-3-5-5-5-5-5-5-5-5|7-7-7-7-7-7-7-7----------------|
Dd|3-3-3-3-3-3-3-3-5-5-5-5-5-5-5-5|7-7-7-7-7-7-7-7-1p0----1p0-----|
Ad|1-1-1-1-1-1-1-1-3-3-3-3-3-3-3-3|5-5-5-5-5-5-5-5-1p0----1p0-----|
Dd|-------------------------------|----------------1p0----1p0-----|

Eb|-------------------------------|-------------------------------|
Bb|-------------------------------|-------------------------------|
Gb|3-3-3-3-3-3-3-3-5-5-5-5-5-5-5-5|7-7-7-7-7-7-7-7----------------|
Dd|3-3-3-3-3-3-3-3-5-5-5-5-5-5-5-5|7-7-7-7-7-7-7-7-1------3-------|
Ad|1-1-1-1-1-1-1-1-3-3-3-3-3-3-3-3|5-5-5-5-5-5-5-5-1------3-------|
Dd|-------------------------------|----------------1------3-------|

Eb|-------------------------------|-------------------------------|
Bb|-------------------------------|-------------------------------|
Gb|3--3---x-x-x-x--5--5---x-x-x-x-|-7---7---7---7-----------------|
Dd|3--3---x-x-x-x--5--5---x-x-x-x-|-7---7---7---7---6---6---6---6-|
Ad|1--1---x-x-x-x--3--3---x-x-x-x-|-5---5---5---5---6---6---6---6-|
Dd|-------------------------------|-----------------6---6---6---6-|

Back to verse (01:48)

Bridge (03:11)
    Guitar 1 (Gtr. 2 tacet for 1 1/2 measures)
Eb|---------------|
Bb|---------------|
Gb|---------------|
Dd|---------------|
Ad|-5-4-3-0-------|
Dd|---------5-3-0-|
    *w/ p.m.

Eb|-------------------------------|-------------------------------|
Bb|-------------------------------|-------------------------------|
Gb|-------------------------------|-------------------------------|
Dd|-------------------------------|-------------------------------|
Ad|-5-4-3-0---------5-4-3-0-------|-5-4-3-0---------5-4-3-0-------|
Dd|---------5-3-0-----------5-3-0-|---------5-3-0-----------5-3-0-|

Eb|-------------------------------|-------------------------------|
Bb|-------------------------------|-------------------------------|
Gb|-------------------------------|-------------------------------|
Dd|-------------------------------|-------------------------------|
Ad|-5-4-3-0---------5-4-3-0-------|-5-4-3-0---------5-4-3-0-------|
Dd|---------5-3-0-----------5-3-0-|---------5-3-0-----------5-3-0-|

    Guitar 2 (03:19)
Eb|-------------------------------|-------------------------------|
Bb|-------------------------------|-------------------------------|
Gb|-7-6-5-----------7-6-5---------|-7-6-5-----------7-6-5---------|
Dd|-------7-6-5-0---------7-6-5-0-|-------7-6-5-0---------7-6-5-0-|
Ad|-------------------------------|-------------------------------|
Dd|-------------------------------|-------------------------------|

Chorus outro (03:24)
Eb|-------------------------------|-------------------------------|
Bb|-------------------------------|-------------------------------|
Gb|3-3-3-3-3-3-3-3-5-5-5-5-5-5-5-5|7-7-7-7-7-7-7-7----------------|
Dd|3-3-3-3-3-3-3-3-5-5-5-5-5-5-5-5|7-7-7-7-7-7-7-7-1------3-------|
Ad|1-1-1-1-1-1-1-1-3-3-3-3-3-3-3-3|5-5-5-5-5-5-5-5-1------3-------|
Dd|-------------------------------|----------------1------3-------|

Eb|-------------------------------|-------------------------------|
Bb|-------------------------------|-------------------------------|
Gb|3-3-3-3-3-3-3-3-5-5-5-5-5-5-5-5|7-7-7-7\-----------------------|
Dd|3-3-3-3-3-3-3-3-5-5-5-5-5-5-5-5|7-7-7-7\--------1p0----1h3-----|
Ad|1-1-1-1-1-1-1-1-3-3-3-3-3-3-3-3|5-5-5-5\--------1p0----1h3-----|
Dd|-------------------------------|----------------1p0----1h3-----|

Eb|-------------------------------|-------------------------------|
Bb|-------------------------------|-------------------------------|
Gb|3-3-3-3-3-3-3-3-5-5-5-5-5-5-5-5|7-7-7-7-7-7-7-7----------------|
Dd|3-3-3-3-3-3-3-3-5-5-5-5-5-5-5-5|7-7-7-7-7-7-7-7-1------3-------|
Ad|1-1-1-1-1-1-1-1-3-3-3-3-3-3-3-3|5-5-5-5-5-5-5-5-1------3-------|
Dd|-------------------------------|----------------1------3-------|

Eb|-------------------------------|-------------------------------|
Bb|-------------------------------|-------------------------------|
Gb|3--3---x-x-x-x--5--5---x-x-x-x-|-7---7---7---7-----------------|
Dd|3--3---x-x-x-x--5--5---x-x-x-x-|-7---7---7---7---6---6---6---6-|
Ad|1--1---x-x-x-x--3--3---x-x-x-x-|-5---5---5---5---6---6---6---6-|
Dd|-------------------------------|-----------------6---6---6---6-|

Eb|-------------------------------|-------------------------------|
Bb|-------------------------------|-------------------------------|
Gb|3-3-3-3-3-3-3-3-5-5-5-5-5-5-5-5|7-7-7-7-7-7-7-7----------------|
Dd|3-3-3-3-3-3-3-3-5-5-5-5-5-5-5-5|7-7-7-7-7-7-7-7-1------3-------|
Ad|1-1-1-1-1-1-1-1-3-3-3-3-3-3-3-3|5-5-5-5-5-5-5-5-1------3-------|
Dd|-------------------------------|----------------1------3-------|

Eb|-------------------------------|-------------------------------|
Bb|-------------------------------|-------------------------------|
Gb|3--3---x-x-x-x--5--5---x-x-x-x-|-7---7---7---7-----------------|
Dd|3--3---x-x-x-x--5--5---x-x-x-x-|-7---7---7---7---6---6---6---6-|
Ad|1--1---x-x-x-x--3--3---x-x-x-x-|-5---5---5---5---6---6---6---6-|
Dd|-------------------------------|-----------------6---6---6---6-|

Eb|-------------------------------|-------------------------------|
Bb|-------------------------------|-------------------------------|
Gb|-------------------------------|-------------------------------|
Dd|-6---6---6---6---6---6---6---6-|--6---6---6---6---0------(0)---|
Ad|-6---6---6---6---6---6---6---6-|--6---6---6---6---0------(0)---|
Dd|-6---6---6---6---6---6---6---6-|--6---6---6---6---0------(0)---|

Eb|-------------------------------|
Bb|-------------------------------|
Gb|-------------------------------|
Dd|-------------(0)---------------|
Ad|-------------(0)---------------|
Dd|-------------(0)---------------|

8.HOME

Tuning (low to high):  Db, Ab, Db, Gb, Bb, Eb

NOTE:  This tab is complete as far as the rhythm.  I am having difficulty hearing
the second guitar part over the chorus and the changes in it in the final chorus.
But the song is complete as listed here in as much as one guitar part is completely
covered.  I will work on getting these guitar 2 fills posted but in the concern of
time and people asking for this tab, I've decided to post it without the fills for now.
If anyone figures them out, please email me and I will add them.  Peace and enjoy...

Intro     
Eb|-----------------------------|
Bb|-----------------------------|
Gb|-------------------------8---|
Dd|-0---0-0---0-0---0-0---0-8---|
Ad|-0---0-0---0-0---0-0---0-6---|
Dd|-0---0-0---0-0---0-0---0-8---|

Eb|-----------------------------|-----------------------------|
Bb|-----------------------------|-----------------------------|
Gb|-------------------------8---|-------------------------8---|
Dd|-0---0-0---0-0---0-0---0-8---|-0---0-0---0-0---0-0---0-8---|
Ad|-0---0-0---0-0---0-0---0-6---|-0---0-0---0-0---0-0---0-6---|
Dd|-0---0-0---0-0---0-0---0-8---|-0---0-0---0-0---0-0---0-8---|

Eb|-----------------------------|-------------------------9b--|
Bb|-----------------------------|-----------------------------|
Gb|-------------------------8---|-----------------------------|
Dd|-0---0-0---0-0---0-0---0-8---|-0---0-0---0-0---0-0---0-----|
Ad|-0---0-0---0-0---0-0---0-6---|-0---0-0---0-0---0-0---0-----|
Dd|-0---0-0---0-0---0-0---0-8---|-0---0-0---0-0---0-0---0-----|

Eb|-----------------------------|-----------------------------|
Bb|-----------------------------|-----------------------------|
Gb|-------------------------8---|-------------------------8---|
Dd|-0---0-0---0-0---0-0---0-8---|-0---0-0---0-0---0-0---0-8---|
Ad|-0---0-0---0-0---0-0---0-6---|-0---0-0---0-0---0-0---0-6---|
Dd|-0---0-0---0-0---0-0---0-8---|-0---0-0---0-0---0-0---0-8---|

Eb|-----------------------------|-----------------------------|
Bb|-----------------------------|-----------------------------|
Gb|-------------------------8---|-------------------------8---|
Dd|-0---0-0---0-0---0-0---0-8---|-0---0-0---0-0---0-0---0-8---|
Ad|-0---0-0---0-0---0-0---0-6---|-0---0-0---0-0---0-0---0-6---|
Dd|-0---0-0---0-0---0-0---0-8---|-0---0-0---0-0---0-0---0-8---|

Verse (00:23) "I've got a little..."
Eb|-----------------------------|-----------------------------|
Bb|-----------------------------|-----------------------------|
Gb|---------------------8-------|---------------------8-------|
Dd|-0----3----0----3----8-------|-0----3----0----3----8-------|
Ad|-0----3----0----3----6-------|-0----3----0----3----6-------|
Dd|-0----3----0----3------------|-0----3----0----3------------|
    p.m  p.m  p.m  p.m            p.m  p.m  p.m  p.m
        *play 4x

Eb|-----------------------------|-----------------------------|
Bb|-----------------------------|-----------------------------|
Gb|-----------------------------|-----------------------------|
Dd|-5----8----5----8----1-------|-5----8----5----8----1-------|
Ad|-5----8----5----8----1-------|-5----8----5----8----1-------|
Dd|-5----8----5----8----1-------|-5----8----5----8----1-------|

Eb|-----------------------------|-----------------------------|
Bb|-----------------------------|-----------------------------|
Gb|---------------------8-------|---------------------8-------|
Dd|-0----3----0----3----8-------|-0----3----0----3----8-------|
Ad|-0----3----0----3----6-------|-0----3----0----3----6-------|
Dd|-0----3----0----3------------|-0----3----0----3------------|
    p.m  p.m  p.m  p.m            p.m  p.m  p.m  p.m

Prechorus (00:53) "There's no place like..."
Eb|-----------------------------|-----------------------------|
Bb|-----------------------------|-----------------------------|
Gb|-5----5---5----5-----5----5--|-----------------------------|
Dd|-5----5---5----5-----5----5--|-1----1---1----1----1----1---|
Ad|-3----3---3----3-----3----3--|-1----1---1----1----1----1---|
Dd|-----------------------------|-1----1---1----1----1----1---|
       *play 2x

Eb|-----------------------------|-----------------------------|
Bb|-----------------------------|-----------------------------|
Gb|-----------------------------|-----------------------------|
Dd|-0----3----0----3----1--(1)--|-0----3----0----3----1--(1)--|
Ad|-0----3----0----3----1--(1)--|-0----3----0----3----1--(1)--|
Dd|-0----3----0----3----1--(1)--|-0----3----0----3----1--(1)--|
       *play 2x (then back to verse)

Chorus (01:55) "It's a little white..."
Eb|-----------------------------|-----------------------------|
Bb|-----------------------------|-----------------------------|
Gb|-3----3---3---3---3--3--3--3-|-----------------------------|
Dd|-3----3---3---3---3--3--3--3-|-5----5---5---5---5--5--5--5-|
Ad|-1----1---1---1---1--1--1--1-|-5----5---5---5---5--5--5--5-|
Dd|-----------------------------|-5----5---5---5---5--5--5--5-|

Eb|-----------------------------|-----------------------------|
Bb|-----------------------------|-----------------------------|
Gb|-----------------------------|-----------------------------|
Db|-3----3---3---3---3--3--3--3-|-1----1---1---1---1--1--1--1-|
Ab|-3----3---3---3---3--3--3--3-|-1----1---1---1---1--1--1--1-|
Db|-3----3---3---3---3--3--3--3-|-1----1---1---1---1--1--1--1-|
       *play 2x

Bridge (02:15)
Eb|-----------------------------|-----------------------------|
Bb|-----------------------------|-----------------------------|
Gb|-----------------------------|-----------------------------|
Dd|-----------------------------|-----------------------------|
Ad|-5----8----5----8----5---6---|-5----8----5----8----5---6---|
Dd|-----------------------------|-----------------------------|
    *use a.h. for next 3 bars
Eb|-----------------------------|-----------------------------|
Bb|-----------------------------|-----------------------------|
Gb|-----------------------------|-----------------------------|
Dd|-----------------------------|---------------------8-------|
Ad|-5----8----5----8----5---6---|-5----8----5----8----6-------|
Dd|-----------------------------|-----------------------------|

Eb|-----------------------------|-----------------------------|
Bb|-----------------------------|-----------------------------|
Gb|-----------------------------|-----------------------------|
Dd|-0----3----0----3----1--(1)--|-0----3----0----3----1-------|
Ad|-0----3----0----3----1--(1)--|-0----3----0----3----1-------|
Dd|-0----3----0----3----1--(1)--|-0----3----0----3----1-------|

Eb|-----------------------------|-----------------------------|
Bb|-----------------------------|-----------------------------|
Gb|-----------------------------|-----------------------------|
Dd|-0----3----0----3----1--(1)--|-0----3----0----3----1-------|
Ad|-0----3----0----3----1--(1)--|-0----3----0----3----1-------|
Dd|-0----3----0----3----1--(1)--|-0----3----0----3----1-------|

Eb|-----------------------------|-----------------------------|
Bb|-----------------------------|-----------------------------|
Gb|-----------------------------|-----------------------------|
Dd|-0----3----0----3----1--(1)--|-0----3----0----3----1-------|
Ad|-0----3----0----3----1--(1)--|-0----3----0----3----1-------|
Dd|-0----3----0----3----1--(1)--|-0----3----0----3----1---0-0-|

Eb|-----------------------------|-----------------------------|
Bb|-----------------------------|-----------------------------|
Gb|-----------------------------|-----------------------------|
Dd|-0----3----0----3----1--(1)--|-0----3----0----3----1--(1)--|
Ad|-0----3----0----3----1--(1)--|-0----3----0----3----1--(1)--|
Dd|-0----3----0----3----1--(1)--|-0----3----0----3----1--(1)--|

Back to Chorus (play 4x)

Outro (03:27) "I wanna go home..."
Eb|-----------------------------|-----------------------------|
Bb|-----------------------------|-----------------------------|
Gb|-------------------------8---|-------------------------8---|
Dd|-0---0-0---0-0---0-0---0-8---|-0---0-0---0-0---0-0---0-8---|
Ad|-0---0-0---0-0---0-0---0-6---|-0---0-0---0-0---0-0---0-6---|
Dd|-0---0-0---0-0---0-0---0-8---|-0---0-0---0-0---0-0---0-8---|

Eb|-----------------------------|-----------------------------|
Bb|-----------------------------|-----------------------------|
Gb|-------------------------8---|-----------------------------|
Dd|-0---0-0---0-0---0-0---0-8---|-0------0------0------0------|
Ad|-0---0-0---0-0---0-0---0-6---|-0------0------0------0------|
Dd|-0---0-0---0-0---0-0---0-8---|-0------0------0------0------|

Eb|-----------------------------|
Bb|-----------------------------|
Gb|-----------------------------|
Dd|-0---------------------------|
Ad|-0---------------------------|
Dd|-0---------------------------|

9.PHASE

Tuning (low to high):  Db, Ab, Db, Gb, Bb, Eb

      Guitar 1 (00:44)
Eb|--------------------------------|--------------------------------|
Bb|--------------------------------|--------------------------------|
Gb|--------------------------------|--------------------------------|
Dd|--------------------------------|--------------------------------|
Ad|5-5-5-8-8-8-3-3-3-5-5-5-0-0-3-0-|5-5-5-8-8-8-3-3-3-5-5-5-0-0-3-0-|
Dd|5-5-5-8-8-8-3-3-3-5-5-5-0-0-3-0-|5-5-5-8-8-8-3-3-3-5-5-5-0-0-3-0-|
 *p.m. (play 6x; the 6th time no palm muting on 2nd bar)

      Guitar 2 (00:54)
Eb|--------------------------------|--------------------------------|
Bb|------------------------------ -|------------------------8-------|
Gb|7---------(7)-----------7b8r7-5-|7h8p7-----(7)-------------------|
Dd|--------------------------------|--------------------------------|
Ad|--------------------------------|--------------------------------|
Dd|--------------------------------|--------------------------------|
 

Eb|--------------------------------|--------------------------------|
Bb|--------------------------------|--------------------------------|
Gb|7---------(7)-----------7b8r7-5-|7h8p7--------7-(7)/-------------|
Dd|--------------------------------|--------------------------------|
Ad|--------------------------------|--------------------------------|
Dd|--------------------------------|--------------------------------|

Eb|--------------------------------|---------------------------8\---|
Bb|------8-------8-8---------8h9---|------8-------8-8---------------|
Gb|7----(7)----7-(7)-------7-------|7----(7)----7-(7)-------7-------|
Dd|--------------------------------|--------------------------------|
Ad|--------------------------------|--------------------------------|
Dd|--------------------------------|--------------------------------|

Eb|--------------------------------|--------------------------------|
Bb|------8-------8-8---------8h9---|-8b10------------(10)-----------|
Gb|7----(7)----7-(7)-------7-------|-10b12-----------(12)-----------|
Dd|--------------------------------|--------------------------------|
Ad|--------------------------------|--------------------------------|
Dd|--------------------------------|--------------------------------|


Lead-in  (01:16)
Eb|--------------------------------|--------------------------------|
Bb|--------------------------------|--------------------------------|
Gb|--------------------------------|--------------------------------|
Dd|--------------------------------|--------------------------------|
Ad|5-5-5-8-8-8-3-3-3-5-5-5-0-0-3-0-|5-5-5-8-8-8-3-3-3-5-5-5-0-0-3-0-|
Dd|5-5-5-8-8-8-3-3-3-5-5-5-0-0-3-0-|5-5-5-8-8-8-3-3-3-5-5-5-0-0-3-0-|
    (play 2x)

Verse (01:27)  "The light is..."
Eb|--------------------------------|--------------------------------|
Bb|--------------------------------|--------------------------------|
Gb|--------------------------------|--------------------------------|
Dd|--------------------------------|--------------------------------|
Ad|5-----8-----3-----5-----3-3-6-0-|5-----8-----3-----5-----3-3-6-0-|
Dd|5-----8-----3-----5-----3-3-6-0-|5-----8-----3-----5-----3-3-6-0-|
 *p.m. (play 2x)

Eb|--------------------------------|--------------------------------|
Bb|--------------------------------|--------------------------------|
Gb|--------------------------------|--------------------------------|
Dd||5-5-5-8-8-8-3-3-3-5-5-5-0-0-3-0-|5-5-5-8-8-8-3-3-3-5-5-5-0-0-3-0-|
Ad|5-5-5-8-8-8-3-3-3-5-5-5-0-0-3-0-|5-5-5-8-8-8-3-3-3-5-5-5-0-0-3-0-|
Dd|5-5-5-8-8-8-3-3-3-5-5-5-0-0-3-0-|5-5-5-8-8-8-3-3-3-5-5-5-0-0-3-0-|
 *p.m. (play 2x; the 2nd time no palm muting on 2nd bar)

Chorus (01:49)  "Out of the..."
Eb|--------------------------------|--------------------------------|
Bb|--------------------------------|--------------------------------|
Gb|--------------------------------|-3-------3-3-3---------3--------|
Dd|--------------------------------|-3-------3-3-3---------3--------|
Ad|-1----1-1-1---------1-1-1---1-1-|-1-------1-1-1---------1-0h1p0--|
Dd|-1----1-1-1---------1-1-1---1-1-|------------------------------3-|

Eb|--------------------------------|--------------------------------|
Bb|--------------------------------|--------------------------------|
Gb|--------------------------------|--------------------------------|
Dd|--------------------------------|-8---8---8---8---7---7---7---7--|
Ad|-1----1-1-1---------1-1-1---1-1-|-8---8---8---8---7---7---7---7--|
Dd|-1----1-1-1---------1-1-1---1-1-|-8---8---8---8---7---7---7---7--|
                                     *w/ rhythm fig.1

                  *rhythm fig.1 (clean tone) Guitar 2
             Eb|--------------------------------|
             Bb|--------------------------------|
             Gb|---------3---------------3------|
             Dd|-----3-------3-------3-------3--|
             Ad|-1---------------0--------------|
             Dd|--------------------------------|
Eb|--------------------------------|--------------------------------|
Bb|--------------------------------|--------------------------------|
Gb|--------------------------------|-3-------3-3-3---------3--------|
Dd|--------------------------------|-3-------3-3-3---------3--------|
Ad|-1----1-1-1---------1-1-1---1-1-|-1-------1-1-1---------1-0h1p0--|
Dd|-1----1-1-1---------1-1-1---1-1-|------------------------------3-|
Eb|--------------------------------|--------------------------------|
Bb|--------------------------------|--------------------------------|
Gb|--------------------------------|--------------------------------|
Dd|--------------------------------|-8---8---8---8---7---7---7---7--|
Ad|-1----1-1-1---------1-1-1---1-1-|-8---8---8---8---7---7---7---7--|
Dd|-1----1-1-1---------1-1-1---1-1-|-8---8---8---8---7---7---7---7--|
                                     *with rhythm fig.1

Eb|--------------------------------|--------------------------------|
Bb|--------------------------------|--------------------------------|
Gb|-------------------------3------|--------------------------------|
Dd|-5---5---5---5---3-------3------|-1--(1)--x-x-1----------(1)-x-x-|
Ad|-5---5---5---5-- 3-------1------|-1--(1)--x-x-1----------(1)-x-x-|
Dd|-5---5---5---5---3--------------|-1--(1)--x-x-1----------(1)-x-x-|

Eb|--------------------------------|
Bb|--------------------------------|
Gb|--------------------------------|
Dd|-x-1--1------3--3-----------x-3-|
Ad|-x-1--1------3--3-----------x-3-|
Dd|-x-1--1------3--3-----------x-3-|

Back to lead-in (02:19)

Chorus - slightly different than previous one (02:53) 
Eb|--------------------------------|--------------------------------|
Bb|--------------------------------|--------------------------------|
Gb|--------------------------------|-3-------3-3-3---------3--------|
Dd|--------------------------------|-3-------3-3-3---------3--------|
Ad|-1----1-1-1---------1-1-1---1-1-|-1-------1-1-1---------1-0h1p0--|
Dd|-1----1-1-1---------1-1-1---1-1-|------------------------------3-|

Eb|--------------------------------|--------------------------------|
Bb|--------------------------------|--------------------------------|
Gb|--------------------------------|--------------------------------|
Dd|--------------------------------|-8---8---8---8---7---7---7---7--|
Ad|-1----1-1-1---------1-1-1---1-1-|-8---8---8---8---7---7---7---7--|
Dd|-1----1-1-1---------1-1-1---1-1-|-8---8---8---8---7---7---7---7--|
                                     *w/ rhythm fig.1

              *rhythm fig.1 (clean tone) Guitar 2
             Eb|--------------------------------|
             Bb|--------------------------------|
             Gb|---------3---------------3------|
             Dd|-----3-------3-------3-------3--|
             Ad|-1---------------0--------------|
             Dd|--------------------------------|

Eb|--------------------------------|--------------------------------|
Bb|--------------------------------|--------------------------------|
Gb|--------------------------------|-3-------3-3-3---------3--------|
Dd|--------------------------------|-3-------3-3-3---------3--------|
Ad|-1----1-1-1---------1-1-1---1-1-|-1-------1-1-1---------1-0h1p0--|
Dd|-1----1-1-1---------1-1-1---1-1-|------------------------------3-|

Eb|--------------------------------|--------------------------------|
Bb|--------------------------------|--------------------------------|
Gb|--------------------------------|--------------------------------|
Dd|--------------------------------|-8---8---8---8---7---7---7---7--|
Ad|-1----1-1-1---------1-1-1---1-1-|-8---8---8---8---7---7---7---7--|
Dd|-1----1-1-1---------1-1-1---1-1-|-8---8---8---8---7---7---7---7--|
                                     *with rhythm fig.1

Eb|--------------------------------|--------------------------------|
Bb|--------------------------------|--------------------------------|
Gb|-------------------------3------|--------------------------------|
Dd|-5---5---5---5---3-------3------|-1-------x-x-1--------------x-x-|
Ad|-5---5---5---5-- 3-------1------|-1-------x-x-1--------------x-x-|
Dd|-5---5---5---5---3--------------|-1-------x-x-1--------------x-x-|

Eb|--------------------------------|--------------------------------|
Bb|--------------------------------|--------------------------------|
Gb|--------------------------------|--------------------------------|
Dd|-x-1--------x-x-1-----------x-x-|-x-1--------x-x-1-----------x-x-|
Ad|-x-1--------x-x-1-----------x-x-|-x-1--------x-x-1-----------x-x-|
Dd|-x-1--------x-x-1-----------x-x-|-x-1--------x-x-1-----------x-x-|

Eb|--------------------------------|
Bb|--------------------------------|
Gb|--------------------------------|
Dd|-x-1--1------3--3-----------x-3-|
Ad|-x-1--1------3--3-----------x-3-|
Dd|-x-1--1------3--3-----------x-3-|
      
Guitar solo (03:27)
Eb|--------------------------------|10-10-10-10-10-10---------------|
Bb|/8-8-8-8-8-8-8-81010101011111111|10-10-10-10-10-10---------------|
Gb|/7-7-7-7-7-7-7-7-7-7-7-7-7-7-7-7|--------------------------------|
Dd|--------------------------------|------------------x--3--3--3--3-|
Ad|--------------------------------|------------------x--3--3--3--3-|
Dd|--------------------------------|------------------x--3--3--3--3-|

Eb|------------------------11111111|10-10-10-10-10-10---------------|
Bb|/8-8-8-8-8-8-8-81010101011111111|10-10-10-10-10-10---------------|
Gb|/7-7-7-7-7-7-7-7-7-7-7-7--------|--------------------------------|
Dd|--------------------------------|----------------------3----5----|
Ad|--------------------------------|----------------------3----5----|
Dd|--------------------------------|----------------------3----5----|

Eb|--------------------------------|10-10-10-10-10-10---------------|
Bb|/8-8-8-8-8-8-8-81010101011111111|10-10-10-10-10-10---------------|
Gb|/7-7-7-7-7-7-7-7-7-7-7-7-7-7-7-7|--------------------------------|
Dd|--------------------------------|------------------x--3--3--3--3-|
Ad|--------------------------------|------------------x--3--3--3--3-|
Dd|--------------------------------|------------------x--3--3--3--3-|
                        "But I can..."
Eb|--------------------------------|
Bb|/8-8-8-8-8-8-8-8----------------|
Gb|/7-7-7-7-7-7-7-7----------------|
Dd|--------------------------3--3--|
Ad|--------------------------1--3--|
Dd|--------------------------1--3--|

Eb|--------------------------------|--------------------------------|
Bb|--------------------------------|--------------------------------|
Gb|--------------------------------|--------------------------------|
Dd|5-5-5-8-8-8-3-3-3-5-5-5-0-0-3-0-|5-5-5-8-8-8-3-3-3-5-5-5-0-0-3-0-|
Ad|5-5-5-8-8-8-3-3-3-5-5-5-0-0-3-0-|5-5-5-8-8-8-3-3-3-5-5-5-0-0-3-0-|
Dd|5-5-5-8-8-8-3-3-3-5-5-5-0-0-3-0-|5-5-5-8-8-8-3-3-3-5-5-5-0-0-3-0-|
    (play 2x)
                           "I know...                      "I know...
Eb|--------------------------------|--------------------------------|
Bb|--------------------------------|--------------------------------|
Gb|--------------------------------|--------------------------------|
Dd|--------------------------------|--------------------------------|
Ad|5-5-5-8-8-8-3-3-3-5-5-5-0-0-3-0-|5-5-5-8-8-8-3-3-3-5-5-5-0-0-3-0-|
Dd|5-5-5-8-8-8-3-3-3-5-5-5-0-0-3-0-|5-5-5-8-8-8-3-3-3-5-5-5-0-0-3-0-|
 *p.m. (play 2x; the 2nd time no palm muting on 2nd bar)

Outro (04:08)  "It's just a ***in'..."
Eb|--------------------------------|--------------------------------|
Bb|--------------------------------|--------------------------------|
Gb|--------------------------------|--------------------------------|
Dd|--------------------------------|--------------------------------|
Ad|-5-5---5---5-5-5--5--5--8-8-3-3-|-5-5---5---5-5-5--5--5--8-8-3-3-|
Dd|-5-5---5---5-5-5--5--5--8-8-3-3-|-5-5---5---5-5-5--5--5--8-8-3-3-|
    (play 3x)

Eb|--------------------------------|--------------------------------|
Bb|--------------------------------|--------------------------------|
Gb|--------------------------------|--------------------------------|
Dd|--------------------------------|--------------------------------|
Ad|-5-5---5---5-5-5--5--5--8-8-3-3-|-5-5---5---5-5-5--5-------------|
Dd|-5-5---5---5-5-5--5--5--8-8-3-3-|-5-5---5---5-5-5--5-------------|

10.NO GAMES

Tuning: low to high (Db Ab Db Gb Bb Eb)

Symbols Used:
/ = Slide up
\ = Slide down
* = Let note or chord ring
P.M. = Palm-mute

Intro (with clean tone):
Eb|--------------------------|--------------------------|
Bb|-------------------3------|-------------------3------|
Gb|-------------------2------|-------------------2------|
Db|-------4-------7---0------|-------4-------2---0------|
Ab|-----4-------7-----0------|-----4-------2-----0------|
Db|---4-------7-------0*-----|---4-------2-------0*-----|

Riff 1: 
Part 1:
				 (3x)
Eb|----------------------------5----|
Bb|----------------------------5*---|
Gb|-------------------------7-------|
Db|-------4-------7-------7---------|
Ab|-----4-------7-------5-----------|
Db|---4-------7-------0-------------|

Part 2:
				 (1x)
Eb|---------------------------------|
Bb|----------------------------2p0--|
Gb|---------------------------------|
Db|-------4-------2---0-------------|
Ab|-----4-------2-----0-------------|
Db|---4-------2-------0*------------|

Play Riff 1 during the verse.

Pre-Chorus: (with distortion)
Riff 2:
				 (4x)
Eb|---------------------------------|
Bb|---------------------------------|
Gb|---------------------------------|
Db|----4----2----0----0--0--0--0----|
Ab|----4----2----0----0--0--0--0----|
Db|----4----2----0----0--0--0--0----|

Chorus: (strumming pattern shown)
Riff 3:
									 (2x)
Eb|-------------------------------------------------------------------------|
Bb|-------------------------------------------------------------------------|
Gb|--------------------------------------6-6-6-6-6-6-6-6--7-7-7-7-9-9-9-9---|
Db|----7-7-7-7-7-7-7-7--4-4-4-4-4-4-4-4--6-6-6-6-6-6-6-6--7-7-7-7-9-9-9-9---|
Ab|----7-7-7-7-7-7-7-7--4-4-4-4-4-4-4-4--4-4-4-4-4-4-4-4--5-5-5-5-7-7-7-7---|
Db|----7-7-7-7-7-7-7-7--4-4-4-4-4-4-4-4-------------------------------------|

play Riff 1 (2x) - 2nd Verse
play Riff 2 (4x) - Pre-Chorus
play Riff 3 (4x) - Chorus 2

Then break while the bass, drums, and violin do their thing...
Riff 4: (at 2:13)
					      (2x)
Eb|----------------------------------------------|
Bb|----------------------------------------------|
Gb|---2---4---6--6--6-4-2---6---7---9--9--9--9---|
Db|----------------------------------------------|
Ab|---0---2---4--4--4-2-0---4---5---7--7--7--7---|
Db|----------------------------------------------|

Interlude:
Riff 5: Guitar 1
					 (3x)
Eb|-----------------------------------------|
Bb|-----------------------------------------|
Gb|-------------------------------7--7--7---|
Db|---0--0--0----0--0----0--0--0------------|
Ab|---0--0--0----0--0----0--0--0--5--5--5---|
Db|---0--0--0----0--0----0--0--0------------|
      P.M.  .    .  .    .  .  .

Guitar 2: Lead over Riff 5
                       (3x)
Eb|-----------------------|
Bb|-----------------------|
Gb|-----------------------|
Db|-----------------------|
Ab|---11---11---9--9--9---|
Db|-----------------------|

play Riff 3 (2x) - Chorus 3 part 1 
Riff 6: (Chorus 3 part 2)
									     (2x)
Eb|-----------------------------------------------------------------------------|
Bb|-----------------------------------------------------------------------------|
Gb|--------------------------------------8-8-8-8-8-8-8-8--9-9-9-9-11-11-11-11---|
Db|----9-9-9-9-9-9-9-9--6-6-6-6-6-6-6-6--8-8-8-8-8-8-8-8--9-9-9-9-11-11-11-11---|
Ab|----9-9-9-9-9-9-9-9--6-6-6-6-6-6-6-6--6-6-6-6-6-6-6-6--7-7-7-7--9--9--9--9---|
Db|----9-9-9-9-9-9-9-9--6-6-6-6-6-6-6-6-----------------------------------------|

End:
Riff 7:
									  (2x)
Eb|--------------------------------------------------------------------------|
Bb|--------------------------------------------------------------------------|
Gb|--------------------------------------------------------------------------|
Db|----9-9-9-9-9-9-9-9--4-4-4-4-4-4-4-4--7-7-7-7-7-7-7-7--2-2-2-2-4-4-4-4----|
Ab|----9-9-9-9-9-9-9-9--4-4-4-4-4-4-4-4--7-7-7-7-7-7-7-7--2-2-2-2-4-4-4-4----|
Db|----9-9-9-9-9-9-9-9--4-4-4-4-4-4-4-4--7-7-7-7-7-7-7-7--2-2-2-2-4-4-4-4----|

Last chord:
Eb|-------|
Bb|-------|
Gb|-------|
Db|---9---|
Ab|---9---|
Db|---9*--|

11.SUGARCOAT

Tuning (low to high):  Db, Ab, Db, Gb, Bb, Eb


Intro     
       Guitars 1 & 2
Eb|-----------------------------|-----------------------------|
Bb|-----------------------------|-----------------------------|
Gb|-----------------------------|------------------5----------|
Dd|-2------0h2---x-2------0h2--x|-2------0h2-----x-5--------3-|
Ad|-2------0h2---x-2------0h2--x|-2------0h2-----x-3--------3-|
Dd|-2------0h2---x-2------0h2--x|-2------0h2-----x----------3-|

Eb|-----------------------------|-----------------------------|
Bb|-----------------------------|-----------------------------|
Gb|-----------------------------|-----------------------------|
Dd|-2------0h2---x-2------0h2--x|-2------0h2------x-3/15------|
Ad|-2------0h2---x-2------0h2--x|-2------0h2------x-3/15------|
Dd|-2------0h2---x-2------0h2--x|-2------0h2------x-3/15------|

       Guitar 1 (00:10)
Eb|-----------------------------|-----------------------------|
Bb|-----------------------------|-----------------------------|
Gb|-----------------------------|------------------5----------|
Dd|-2------0h2---x-2------0h2--x|-2------0h2-----x-5--------3-|
Ad|-2------0h2---x-2------0h2--x|-2------0h2-----x-3--------3-|
Dd|-2------0h2---x-2------0h2--x|-2------0h2-----x----------3-|

Eb|-----------------------------|-----------------------------|
Bb|-----------------------------|-----------------------------|
Gb|-----------------------------|------------------5----------|
Dd|-2------0h2---x-2------0h2--x|-2------0h2-----x-5--------3-|
Ad|-2------0h2---x-2------0h2--x|-2------0h2-----x-3--------3-|
Dd|-2------0h2---x-2------0h2--x|-2------0h2-----x----------3-|

       Guitar 2 (00:10)
Eb|-2--------------2------------|-2---------------------------|
Bb|-5--------------5------------|-5---------------------------|
Gb|-4--------------4------------|-4----------------5----------|
Dd|-2------------x-2-----------x|-2--------------x-5--------3-|
Ad|-2------------x-2-----------x|-2--------------x-3--------3-|
Dd|-2------------x-2-----------x|-2--------------x----------3-|

Eb|-2--------------2------------|-2---------------------------|
Bb|-5--------------5------------|-5---------------------------|
Gb|-4--------------4------------|-4----------------5----------|
Dd|-2------------x-2-----------x|-2--------------x-5--------3-|
Ad|-2------------x-2-----------x|-2--------------x-3--------3-|
Dd|-2------------x-2-----------x|-2--------------x----------3-|
    

Verse (00:20)  "It started again..."
Eb|-----------------------------|-3---------------------------|
Bb|-5---------------------------|-3---------------------------|
Gb|-4---------------------------|-0---------------------------|
Dd|-2---------------------------|-2---------------------------|
Ad|-0---------------------------|-3---------------------------|
Dd|-----------------------------|-----------------------------|

Eb|-----------------------------|-0---------------------------|
Bb|-5---------------------------|-3---------------------------|
Gb|-4---------------------------|-2---------------------------|
Dd|-2---------------------------|-0---------------------------|
Ad|-0---------------------------|-----------------------------|
Dd|-----------------------------|-----------------------------|
 *clean tone (play 2x)

      (00:40)
Eb|-----------------------------|-3-----3-----3-----3-----3---|
Bb|-5-----5-----5-----5-----5---|-3-----3-----3-----3-----3---|
Gb|-4-----4-----4-----4-----4---|-0-----0-----0-----0-----0---|
Dd|-2-----2-----2-----2-----2---|-2-----2-----2-----2-----2---|
Ad|-0-----0-----0-----0-----0---|-3-----3-----3-----3-----3---|
Dd|-----------------------------|-----------------------------|

Eb|-----------------------------|-0-----0-----0-----0-----0---|
Bb|-5-----5-----5-----5-----5---|-3-----3-----3-----3-----3---|
Gb|-4-----4-----4-----4-----4---|-2-----2-----2-----2-----2---|
Dd|-2-----2-----2-----2-----2---|-0-----0-----0-----0-----0---|
Ad|-0-----0-----0-----0-----0---|-----------------------------|
Dd|-----------------------------|-----------------------------|
     
Eb|-----------------------------|-----------------------------|
Bb|-5-----5-----5-----5-----5---|-----------------------------|
Gb|-4-----4-----4-----4-----4---|-5--5--5--5--7--7--7--7------|
Dd|-2-----2-----2-----2-----2---|-5--5--5--5--7--7--7--7------|
Ad|-0-----0-----0-----0-----0---|-3--3--3--3--5--5--5--5------|
Dd|-----------------------------|-----------------------------|
                                  *w/ distortion

Chorus (00:55)
           Guitars 1 & 2  "No.  Look what you..."
Eb|-----------------------------|-----------------------------|
Bb|-----------------------------|-----------------------------|
Gb|-----------------------------|------------------5----------|
Dd|-2------0h2---x-2------0h2--x|-2------0h2-----x-5--------3-|
Ad|-2------0h2---x-2------0h2--x|-2------0h2-----x-3--------3-|
Dd|-2------0h2---x-2------0h2--x|-2------0h2-----x----------3-|

Eb|-----------------------------|-----------------------------|
Bb|-----------------------------|-----------------------------|
Gb|-----------------------------|-----------------------------|
Dd|-2------0h2---x-2------0h2--x|-2------0h2------x-3/15------|
Ad|-2------0h2---x-2------0h2--x|-2------0h2------x-3/15------|
Dd|-2------0h2---x-2------0h2--x|-2------0h2------x-3/15------|

       Guitar 1 (01:04)
Eb|-----------------------------|-----------------------------|
Bb|-----------------------------|-----------------------------|
Gb|-----------------------------|------------------5----------|
Dd|-2------0h2---x-2------0h2--x|-2------0h2-----x-5--------3-|
Ad|-2------0h2---x-2------0h2--x|-2------0h2-----x-3--------3-|
Dd|-2------0h2---x-2------0h2--x|-2------0h2-----x----------3-|

Eb|-----------------------------|-----------------------------|
Bb|-----------------------------|-----------------------------|
Gb|-----------------------------|------------------5----------|
Dd|-2------0h2---x-2------0h2--x|-2------0h2-----x-5--------3-|
Ad|-2------0h2---x-2------0h2--x|-2------0h2-----x-3--------3-|
Dd|-2------0h2---x-2------0h2--x|-2------0h2-----x----------3-|

       Guitar 2 (01:04)
Eb|-2--------------2------------|-2---------------------------|
Bb|-5--------------5------------|-5---------------------------|
Gb|-4--------------4------------|-4----------------5----------|
Dd|-2------------x-2-----------x|-2--------------x-5--------3-|
Ad|-2------------x-2-----------x|-2--------------x-3--------3-|
Dd|-2------------x-2-----------x|-2--------------x----------3-|

Eb|-2--------------2------------|-2---------------------------|
Bb|-5--------------5------------|-5---------------------------|
Gb|-4--------------4------------|-4----------------5----------|
Dd|-2------------x-2-----------x|-2--------------x-5--------3-|
Ad|-2------------x-2-----------x|-2--------------x-3--------3-|
Dd|-2------------x-2-----------x|-2--------------x----------3-|
    
Guitar solo (02:09)
 *2 guitars arranged for 1

Eb|-4/5-----------(5)-------5/7-|-7\3----------(3)--------3\2-|
Bb|-----------------------------|-----------------------------|
Gb|-1/2-----------(2)-------2/4-|-4\0----------(0)------------|
Dd|-----------------------------|-------------------------5\4-|
Ad|-----------------------------|-----------------------------|
Dd|-----------------------------|-----------------------------|

Eb|-2\0----------(0)------------|-----------------------------|
Bb|-------------------------5/7-|-7\3------(3)------3--3--3h5-|
Gb|-----------------------------|-----------------------------|
Dd|-4\2----------(2)--------2/4-|-4\0------(0)------0--0--0h2-|
Ad|-----------------------------|-----------------------------|
Dd|-----------------------------|-----------------------------|

Eb|-4/5-----------(5)-------5/7-|-7\3----------(3)--------3\2-|
Bb|-----------------------------|-----------------------------|
Gb|-1/2-----------(2)-------2/4-|-4\0----------(0)------------|
Dd|-----------------------------|-------------------------5\4-|
Ad|-----------------------------|-----------------------------|
Dd|-----------------------------|-----------------------------|

Eb|-2\0----------(0)------------|-----------------------------|
Bb|-------------------------5/7-|-7\3------(3)------3--3--3h5-|
Gb|-----------------------------|-----------------------------|
Dd|-4\2----------(2)--------2/4-|-4\0------(0)------0--0--0h2-|
Ad|-----------------------------|-----------------------------|
Dd|-----------------------------|-----------------------------|

Eb|-5----7----7/8--7----5---3---|-5----7----7/8--7-7----5-10\-|
Bb|-----------------------------|-----------------------------|
Gb|-2----4----4/5--4----2---0---|-2----4----4/5--4-4----2--7\-|
Dd|-----------------------------|-----------------------------|
Ad|-----------------------------|-----------------------------|
Dd|-----------------------------|-----------------------------|

Eb|-5----7----7/8--7----5---3---|-5----7----7/8--7-7----5-10\-|
Bb|-----------------------------|-----------------------------|
Gb|-2----4----4/5--4----2---0---|-2----4----4/5--4-4----2--7\-|
Dd|-----------------------------|-----------------------------|
Ad|-----------------------------|-----------------------------|
Dd|-----------------------------|-----------------------------|

Eb|-5----7----7/8--7----5---3---|-5\3---3\2---2\0----2p0------|
Bb|-----------------------------|-------------------------3h5-|
Gb|-2----4----4/5--4----2---0---|-2p0-------------------------|
Dd|-----------------------------|-------5\4---4\2----4p2--0h2-|
Ad|-----------------------------|-----------------------------|
Dd|-----------------------------|-----------------------------|

Eb|-12--12--12--12--12-12-12-12-|-12b-12b-12b-12b-12b12b12b12b|
Bb|-----------------------------|-----------------------------|
Gb|--9---9---9---9---9--9--9--9-|--9b--9b--9b--9b--9b-9b-9b-9b|
Dd|-----------------------------|-----------------------------|
Ad|-----------------------------|-----------------------------|
Dd|-----------------------------|-----------------------------|

Back to chorus (02:43)

Outro (03:03)
Eb|-----------------------------|-----------------------------|
Bb|-----------------------------|-----------------------------|
Gb|-----------------------------|-----------------------------|
Dd|-0h2----3p2----0h2--- 3p2----|-0h2----3p2----3-3----1-1----|
Ad|-0h2----3p2----0h2--- 3p2----|-0h2----3p2----3-3----1-1----|
Dd|-0h2----3p2----0h2--- 3p2----|-0h2----3p2----3-3----1-1----|
     (play 3x)

Eb|-----------------------------|-----------------------------|
Bb|-----------------------------|-----------------------------|
Gb|-----------------------------|-----------------------------|
Dd|-0h2----3p2----0h2--- 3p2----|-0h2----3p2----3-3-3--1-1-1--|
Ad|-0h2----3p2----0h2--- 3p2----|-0h2----3p2----3-3-3--1-1-1--|
Dd|-0h2----3p2----0h2--- 3p2----|-0h2----3p2----3-3-3--1-1-1--|

Eb|-----------------------------|
Bb|-----------------------------|
Gb|-----------------------------|
Dd|-2--------------(2)----------|
Ad|-2--------------(2)----------|
Dd|-2--------------(2)----------|

12.SHALLOW BAY

Tuning (low to high):  Db, Ab, Db, Gb, Bb, Eb


Intro
    Guitar 1
Eb|-------------------------------|-------------------------------|
Bb|-------------------------------|-------------------------------|
Gb|-------------------------------|-------------------------------|
Dd|-------------------------------|-------------------------------|
Ad|-2-5-2-0-2--2---2---2---2---2--|-2-5-2-0-2--2---2---2---2-0----|
Dd|-2-5-2-0-2--2---2---2---2---2--|-2-5-2-0-2--2---2---2---2-0----|
							   *Gtr.2
							 enters here
    Guitars 1 & 2
Eb|-------------------------------|-------------------------------|
Bb|-------------------------------|-------------------------------|
Gb|-------------------------------|-------------------------------|
Dd|-------------------------------|-------------------------------|
Ad|-2-5-2-0-2--2---2---2---2---2--|-2-5-2-0-2--2---2---2---2-0----|
Dd|-2-5-2-0-2--2---2---2---2---2--|-2-5-2-0-2--2---2---2---2-0----|
    *play 3x

Verse (00:20)
Eb|-------------------------------|-------------------------------|
Bb|-------------------------------|-------------------------------|
Gb|-------------------------------|-------------------------------|
Dd|-------------------------------|-------------------------------|
Ad|-----2h3-----------------------|-----2h3-----------------2-0---|
Dd|-2h5-----2---2---2---2---2---2-|-2h5-----2---2---2---2---2-0---|
    *play 2x (w/ p.m. until last 2 chords)

Eb|-------------------------------|-------------------------------|
Bb|-------------------------------|-------------------------------|
Gb|-------------------------------|-------------------------------|
Dd|-------------------------------|-------------------------------|
Ad|-2-5-2-0-2--2---2---2---2---2--|-2-5-2-0-2--2---2---2---2-0----|
Dd|-2-5-2-0-2--2---2---2---2---2--|-2-5-2-0-2--2---2---2---2-0----|
    *play 2x  (w/ p.m. until last 2 chords)

Chorus (00:40)  "And I float upon..."
    Guitar 1
Eb|-------------------------------|-------------------------------|
Bb|-------------------------------|-------------------------------|
Gb|-5--------5------5---5-----5---|-------------------------------|
Dd|-5--------5------5---5-----5---|-5-------5------2--0----2--0---|
Ad|-3--------3------3---3-----3---|-5-------5------2--0----2--0---|
Dd|-------------------------------|-5-------5------2--0----2--0---|
    *play 3x

Eb|-------------------------------|-------------------------------|
Bb|-------------------------------|-------------------------------|
Gb|-5--------5------5---5-----5---|-4---4---4---4---4---4---4\----|
Dd|-5--------5------5---5-----5---|-4---4---4---4---4---4---4\----|
Ad|-3--------3------3---3-----3---|-2---2---2---2---2---2---2\----|
Dd|-------------------------------|-------------------------------|
   
    Guitar 2 (clean tone)
Eb|-0---------------(0)-----------|-------------------------------|
Bb|-1---------------(1)-----------|-------------------------------|
Gb|-0---------------(0)-----------|-------------------------------|
Dd|-2---------------(2)-----------|-------------------------------|
Ad|-3---------------(3)-----------|-------------------------------|
Dd|-------------------------------|-------------------------------|
    *play 3x
    
Eb|-------------------------------|-------------------------------|
Bb|-------------------------------|-------------------------------|
Gb|-5--------5------5---5-----5---|-4---4---4---4---4---4---4\----|
Dd|-5--------5------5---5-----5---|-4---4---4---4---4---4---4\----|
Ad|-3--------3------3---3-----3---|-2---2---2---2---2---2---2\----|
Dd|-------------------------------|-------------------------------|
    *w/ distortion

Back to intro riff (00:58)

Chorus II (01:29)
    Guitar 1
Eb|-------------------------------|-------------------------------|
Bb|-------------------------------|-------------------------------|
Gb|-5--------5------5---5-----5---|-------------------------------|
Dd|-5--------5------5---5-----5---|-5-------5------2--0----2--0---|
Ad|-3--------3------3---3-----3---|-5-------5------2--0----2--0---|
Dd|-------------------------------|-5-------5------2--0----2--0---|
    *play 3x

Eb|-------------------------------|-------------------------------|
Bb|-------------------------------|-------------------------------|
Gb|-5--------5------5---5-----5---|-4---4---4---4---4---4---4---4/|
Dd|-5--------5------5---5-----5---|-4---4---4---4---4---4---4---4/|
Ad|-3--------3------3---3-----3---|-2---2---2---2---2---2---2---2/|
Dd|-------------------------------|-------------------------------|

Eb|-------------------------------|-------------------------------|
Bb|-------------------------------|-------------------------------|
Gb|-5---5---5---5---5---5---5---5-|-4---4---4---4---4---4---4-----|
Dd|-5---5---5---5---5---5---5---5-|-4---4---4---4---4---4---4-----|
Ad|-3---3---3---3---3---3---3---3-|-2---2---2---2---2---2---2-----|
Dd|-------------------------------|-------------------------------|
   
    Guitar 2 (clean tone)
Eb|-0---------------(0)-----------|-------------------------------|
Bb|-1---------------(1)-----------|-------------------------------|
Gb|-0---------------(0)-----------|-------------------------------|
Dd|-2---------------(2)-----------|-------------------------------|
Ad|-3---------------(3)-----------|-------------------------------|
Dd|-------------------------------|-------------------------------|
    *play 3x
    
Eb|-------------------------------|-------------------------------|
Bb|-------------------------------|-------------------------------|
Gb|-5--------5------5---5-----5---|-4---4---4---4---4---4---4---4/|
Dd|-5--------5------5---5-----5---|-4---4---4---4---4---4---4---4/|
Ad|-3--------3------3---3-----3---|-2---2---2---2---2---2---2---2/|
Dd|-------------------------------|-------------------------------|
    *w/ distortion
Eb|-------------------------------|-------------------------------|
Bb|-------------------------------|-------------------------------|
Gb|-5---5---5---5---5---5---5---5-|-4---4---4---4---4---4---4-----|
Dd|-5---5---5---5---5---5---5---5-|-4---4---4---4---4---4---4-----|
Ad|-3---3---3---3---3---3---3---3-|-2---2---2---2---2---2---2-----|
Dd|-------------------------------|-------------------------------|

Bridge (01:53)
    Guitar 1
Eb|-0-----------(0)---------------|-0-----------(0)---------------|
Bb|-0-----------(0)----------3----|-0-----------(0)----------3----|
Gb|-0-----------(0)----------2----|-0-----------(0)----------2----|
Dd|-2-----------(2)----------4----|-2-----------(2)----------4----|
Ad|-3-----------(3)----------0----|-3-----------(3)----------0----|
Dd|-------------------------------|-------------------------------|
    *play 3x

Eb|-0-----------(0)---------------|-0-----------------------------|
Bb|-0-----------(0)----------3----|-0-----------------------------|
Gb|-0-----------(0)----------2----|-0-----------------------------|
Dd|-2-----------(2)----------4----|-2-----------------------------|
Ad|-3-----------(3)----------0----|-3-----------------------2--0--|
Dd|-------------------------------|-------------------------2--0--|
 				    *w/ delay
    Guitar 2 (02:03)
Eb|-12--12--12--12--12--10--10--10|-8-----------------------------|
Bb|-------------------------------|-------------------------------|
Gb|-------------------------------|-------------------------------|
Dd|-------------------------------|-------------------------------|
Ad|-------------------------------|-------------------------2--0--|
Dd|-------------------------------|-------------------------2--0--|
    *play 2x (w/ ad lib)

Back to Chorus (02:12)

    Guitar II (02:32) *played over last Chorus
Eb|-------------------------------|-------------------------------|
Bb|-/8---8----8--8-----8------/13-|-12------------------8p7---8p7-|
Gb|-------------------------------|-------------------------------|
Dd|-------------------------------|-------------------------------|
Ad|-------------------------------|-------------------------------|
Dd|-------------------------------|-------------------------------|

Eb|-------------------------------|-------------------------------|
Bb|--8---8----8--8-----8------/13-|-/15-----------------8p7---8p7-|
Gb|-------------------------------|-------------------------------|
Dd|-------------------------------|-------------------------------|
Ad|-------------------------------|-------------------------------|
Dd|-------------------------------|-------------------------------|

Eb|-------------------------------|-------------------------------|
Bb|--8---8----8--8-----8------/13-|-12------------------8p7---8p7-|
Gb|-------------------------------|-------------------------------|
Dd|-------------------------------|-------------------------------|
Ad|-------------------------------|-------------------------------|
Dd|-------------------------------|-------------------------------|

Eb|-------------------------------|-------------------------------|
Bb|--8---8----8--8-----8----8-----|-7---7---7---7--/10--10---7--7-|
Gb|-------------------------------|-------------------------------|
Dd|-------------------------------|-------------------------------|
Ad|-------------------------------|-------------------------------|
Dd|-------------------------------|-------------------------------|

Eb|-------------------------------|-------------------------------|
Bb|-8---8---8---8---8---8--10--10-|-7---7---7---7--10--10---7--7--|
Gb|-------------------------------|-------------------------------|
Dd|-------------------------------|-------------------------------|
Ad|-------------------------------|-------------------------------|
Dd|-------------------------------|-------------------------------|

Eb|-------------------------------|-------------------------------|
Bb|-8---8---8---8--10--10--12--12-|-7---7---7---7--7--------------|
Gb|-------------------------------|-------------------------------|
Dd|-------------------------------|-------------------------------|
Ad|-------------------------------|-------------------------------|
Dd|-------------------------------|-------------------------------|

Outro (02:56)
    Guitar 1
Eb|-------------------------------|-------------------------------|
Bb|-------------------------------|-------------------------------|
Gb|-------------------------------|-------------------------------|
Dd|--------5p4--0--5-------5p4--0-|--------5p4--0--5-------5--0---|
Ad|-7-----------------------------|-3-----------------------------|
Dd|-------------------------------|-------------------------------|
    *play 2x

Eb|-------------------------------|-------------------------------|
Bb|-------------------------------|-------------------------------|
Gb|-------------------------------|-------------------------------|
Dd|--------5p4--0--5------5--4--0-|--------5p4--0--5-------5--0---|
Ad|-7-----------------------------|-3-----------------------------|
Dd|-------------------------------|-------------------------------|

Eb|-------------------------------|-------------------------------|
Bb|-------------------------------|-------------------------------|
Gb|-------------------------------|-------------------------------|
Dd|--------5p4--0--5-------5p4--0-|--------5p4--0--5-------5--0---|
Ad|-7-----------------------------|-3-----------------------------|
Dd|-------------------------------|-------------------------------|
     "You live, you learn"
Eb|-------------------------------|-------------------------------|
Bb|-------------------------------|-------------------------------|
Gb|-------------------------------|-------------------------------|
Dd|--------5p4--0--5-------5p4--0-|--------5p4--0--5-------5--0---|
Ad|-7-----------------------------|-3-----------------------------|
Dd|-------------------------------|-------------------------------|
    *let open string ring at end of each bar (play 3x)

Eb|-------------------------------|-------------------------------|
Bb|-------------------------------|-------------------------------|
Gb|-------------------------------|-------------------------------|
Dd|--------5p4--0--5------5--4--0-|-------------------------------|
Ad|-7-----------------------------|-3--------------(3)------------|
Dd|-------------------------------|-------------------------------|

    Guitar 2 (02:56)
Eb|-------------------------------|-------------------------------|
Bb|-------------------------------|-------------------------------|
Gb|-------------------------------|-------------------------------|
Dd|--------9p8--7-/9-------9p8--7-|--------9p8--7-/9------9--7----|
Ad|-7-----------------------------|-10----------------------------|
Dd|-------------------------------|-------------------------------|
    *play 2x

Eb|-------------------------------|-------------------------------|
Bb|-------------------------------|-------------------------------|
Gb|-------------------------------|-------------------------------|
Dd|--------9p8--7-/9------9--8--7-|--------9p8--7-/9------9--7----|
Ad|-7-----------------------------|-10----------------------------|
Dd|-------------------------------|-------------------------------|

Eb|-------------------------------|-------------------------------|
Bb|-------------------------------|-------------------------------|
Gb|-------------------------------|-------------------------------|
Dd|--------9p8--7-/9-------9p8--7-|--------9p8--7-/9------9--7----|
Ad|-7-----------------------------|-10----------------------------|
Dd|-------------------------------|-------------------------------|
    *let open string ring at end of each bar (play 3x)

String Arrangement Until End


22 comments total. Showing first comments.
0 reply
Silenzo666 wrote on October 7 2005, 09:44 am

You stole everyones' tabs! Tab your own songs, and quit stealing tabs!

0 reply
Silenzo666 wrote on October 7 2005, 09:45 am

The author of this tab (Andrew Zara) stole just about every single tab on this album tab from other tabbers.

0 reply
Andrew Zara wrote on October 7 2005, 02:50 pm

Hah,just to let you know everybody who maks album tabs DO NOT make their own tabs.They copy and paste them just like the other albm tab for breaking benjamin was all copy and pasted.I'm not the only one!You just have to understand that and live with it nOOb.

I want to post or [tab]
guest
You may want to rate the tab now too:
select rating
Please do not post tabs as comments. Select "correction" instead!