Oops, an error
Loading. Please wait.

We Are Not Alone Bass Tab

3,201 views 3 this week
no commentswrite comment
1 2 3 4 5
excellent!
x 4
add to favorites launch autoscroll
font size
0
reset
Autoscroll
+/-
esc
set tempo
stop
Contributor
WARNING: You are trying to view
                                    content from Ultimate-Guitar.com
                                    in an unauthorized application,
                                    which is prohibited.

                                    Please use an official Ultimate
                                    Guitar Tabs application for iPhone,
                                    iPad or Android to access legitimate
                                    chords, guitar, bass, and drum tabs
                                    from Ultimate-Guitar.com database.

                                    Type "ultimate guitar tabs" in Apple
                                    App Store's or Android Market's
                                    search to find the application.
We Are Not Alone
Breaking Benjamin
Released June 29th 2004

Enjoy!

i tuned the whole tab for C, G, C, F, and i know i know Mark uses a 5 string but i don't 
one so here you go for all the 4 stringers out there

A BIG THANK YOU to the people i used tabs from, couldn't make it happen without them

Tracklist

1. So Cold - Myelemenohpee
2. Simple Design - Bass Pants
3. Follow - Bass Pants
4. Firefly - Bass Pants
5. Break My Fall - Bass Pants
6. Forget It - Bass Pants
7. Sooner or Later - Aussie_Bassist
8. Breakdown - Bass Pants and bbenbassman14
9. Away - Counterfeit031
10.Believe - Bass Pants
11.Rain - Aussie_Bassist

"So Cold"

Sync with cymbal
F|--------|
C|-0----0-|
G|--------|
C|--------|


intro for bass.
F|--10-7---5h7---9-9-5-------5h7-|--10-7---5h7---9-9-5---5h7---|
C|-0-----0-----0-------0-3h5-----|-0-----0-----0-------0-----3-|
G|-------------------------------|-----------------------------|
C|-------------------------------|-----------------------------|

F|--10-7---5h7---9-9-5-------5h7-|--10-7---5h7---9-9-5---5----|
C|-0-----0-----0-------0-3h5-----|-0-----0-----0-------0---3--|
G|-------------------------------|----------------------------|
C|-------------------------------|----------------------------|


Bridge
F|-------------------------------|-----------------------------|
C|-------------------------------|-----------------------------|
G|---8-5---3h5---7-7-3-------3h5-|---8-5---3h5---7-7-3---3h5---|
C|-0-----0-----0-------0-3h5-----|-0-----0-----0-------0-----3-|

F|-------------------------------|---------------------------|
C|-------------------------------|---------------------------|
G|---8-5---3h5---7-7-3-------3h5-|---8-5---3h5---7-7-3---3---|
C|-0-----0-----0-------0-3h5-----|-0-----0-----0-------0---3-|


Verse					     x3
F|---------------------|-----------------------|
C|---------------------|--------3-2------------|
G|-----------------3-5-|------------5-3-5------|
C|3-0---------3-0------|---3-0-------------3-0-|

F|-----------------3------------------------|
C|---------------23-----------------222-3-5-|
G|-----3-5-3h5-35-----3-5-3h5--3-55---------|
C|-3-0--------------3-----------------------|


Chorus
F|-------------------------------|------------------------------|
C|-------------------------------|------------------------------|
G|-11111111------------------333-|-11111111-----------------3-0-|
C|-----------00--00--00--00------|-----------00--00--00--00-----|

F|--------------------------------------------|
C|--------------------------------------------|
G|-11111111-----------------11111111-33333333-|
C|-----------0--2--3--------------------------|


Bridge
F|-------------------------------|---------------------------|
C|-------------------------------|---------------------------|
G|---8-5---3h5---7-7-3-------3h5-|---8-5---3h5---7-7-3---3---|
C|-0-----0-----0-------0-3h5-----|-0-----0-----0-------0---3-|


Verse 2				       x7
F|---7-5h7----------457---5h7--754--------|
C|-5-------5------57----5----5----75------|
G|-----------5778-------------------8775--|
C|----------------------------------------|

F|-----7-5h7-----------457/15-1414-1412-12----------12--|
C|---5-------5------57---------------------15141415---14|
G|-------------5778-------------------------------------|
C|------------------------------------------------------|


Chorus
F|-------------------------------|------------------------------|
C|-------------------------------|------------------------------|
G|-11111111------------------333-|-11111111-----------------3-0-|
C|-----------00--00--00--00------|-----------00--00--00--00-----|

F|--------------------------------------------|
C|--------------------------------------------|
G|-11111111-----------------11111111-3333-0000|
C|-----------0--2--3--5-----------------------|


Bridge
F|-------------------------------|---------------------------|
C|-------------------------------|---------------------------|
G|---8-5---3h5---7-7-3-------3h5-|---8-5---3h5---7-7-3---3---|
C|-0-----0-----0-------0-3h5-----|-0-----0-----0-------0---3-|


Interlude				      x4
F|----------------------------------------------|
C|----------------------------------------------|
G|-------5------------5--------5--------3-------|
C|-0-3h5----0--3--5-6----0-3h5----6-5-6---6-5-6-|


Chorus
F|---------------------------------------------|
C|-----------0-2/3----------------------0-23/5-|
G|111111-1-3---------------33-1111111-3--------|
C|----------------00-00-00---------------------|

F|-----------32-----------------3------------------|
C|-------------53----------------------------------|
G|-111111-3h5------------11111-5-5-1-333333-5555555|
C|---------------0-2-3-5---------------------------|


Guitar Fill

Outro 1		     x4
F|---------------------|
C|---------------------|
G|----------------8888-|
C|-0-0-0---0-0-0-------|

Outro 2	     x3
F|-------------|-------7-|
C|-------------|---------|
G|-5--8--7--8/-|-5--8----|
C|-------------|---------|


"Simple Design"

Intro
F|-----------------------------------------|     |---------|
C|-----------------------------------------|     |---------|
G|-3-2-0-----------------3h5-----0p3p5h3p0-|     |----5----|
C|-------5-0-3---0-0-0-0-----0-0-----------| x3  |-0-----3-|

Intro 2
F|---------5-------------|
C|---------------4-4-4-4-|
G|------3----------------|
C|-0-0-------0-0---------|

Verse
F|--------5-------------|
C|----------------------|
G|----------------------|
C|-0-0-3----3-3-1-1-0-0-|

Intro 2 x3

Pre-chorus
F|------------|
C|------------|
G|--3---------|
C|----0-0-7/--|

Chorus
F|------5-----------------------------------------------------------------|
C|------------------------------------------------------------------------|
G|-------------------------------------------0-000000--4-2----------------|
C|0-0000--7-777777--4-4444--5-555555-0-0000----------------4-5--0-5-0-5-7-|

Intro 2 x3
Verse
Intro x3
Pre-Chorus
Chorus

Break
F|-------------|
C|-------------|
G|----3---2----|
C|-0---------5-|

Part 2
F|-----------------------------------------------------------------|
C|-----------------------------------------------------------------|
G|-0-0-0-0-0-0-0-0-3-3-3-3-3-3-3-3-5-5-5-5-5-5-5-5-3-3-3-3-3-3-3-3-|
C|-----------------------------------------------------------------|

Part 3 (im not sure if you play the runs on bass)
F|------------------------------------------------------------|
C|------------------------------------------------------------|
G|-------------------5--------------------------5---------3h5-|
C|-0-0-0---0-0-0-------3p0-3---0-0-0---0-0-0------3p0-3h5-----|

F|------------------------------------------------------------------------7------|
C|-------------------------------------------------------------------------------|
G|-------------------------------------------------------------------------------|
C|-0-0-0-0-7-7-7-7-4-4-4-4-5-5-5-5-0-0-0-0-7-7-7-7-4-4-4-4-5-5-5-5----0------0-3-|

Chorus

Outro
F|--------------------------------------------------------------|
C|---------------------------------------3-0--------------------|
G|--5------------------------3h5---5-----------5---3h5---3h5----|
C|0---3-0-5-0-0-6-0-0-5-0-3h5----0---3-0-----0---0-----0-----3~~|

F|-------------------------------------------------------|
C|-------------------------------------------------------|
G|--5------------------------3h5-------5-----------------|
C|0---3-0-5-0-0-6-0-0-5-0-3h5-------0-----3-----0--0--0--|

"Follow"

Intro
F|--------------------------------------------------------------------------------|
C|--------------------------------------------------------------------------------|
G|--------------------------------------------------------------------------------|
C|-0~--3~--3-5-5-5--5-3-0-8-5-5-5-5---5-3-0-3-5-5-5-5---5-3-0-8-5-5-5-5---x-0-x-3-|

Verse x2
F|-----------------------------------|
C|-----------------------------------|
G|-----------------------------------|
C|-5~---5-5---3-3--1-1-1-1-1-1-3-3-3-|

Pre-Chorus
F|--------------------------------------------------------------------|
C|--------------------------------------------------------------------|
G|--------------------------------------------------------------3-3-3-|
C|5-5-5-5-5-5-5-5-5-3-3-3-3-3-3-3-3-3-1-1-1-1-1-1-1-1-1-1-1-1-1-------| x2

F|------------------------------------------------------------------|
C|------------------------------------------------------------------|
G|------------------------------------------------------------------|
C|5-5-5-5-5-5-5-5-5-3-3-3-3-3-3-3-3-3-1-1-1-1-1-1-1-1-1-1-1-1-1-3-1-|

Chorus

F|-----------------------------------------------------------------|
C|-----------------------------------------------------------------|
G|-1-1-1-1-1-1-1-1---------------------------------6-6-6-6-6-6-6-6-|
C|-----------------3-3-3-3-3-3-3-3-5-5-5-5-5-5-5-5-----------------|

F|-----------------------------------------------------------|
C|-----------------------------------------------------------|
G|-1-1-1-1-1-1-1-1---------------------------------6-6---6-6-|
C|-----------------3-3-3-3-3-3-3-3-5-5-5-5-5-5-5-5-----------|

Intro
Verse
Chorus

Bridge x2
F|--------------------------------------------|
C|--------------------------------------------|
G|--------------------------------------------|
C|-6-5-3-1-0-1--5-5-5-5-5-5-5-0-0-0-0-0-0-0-0-|


F|--------------------------------------------|
C|--------------------------------------------|
G|--------------------------------------------|
C|-6-5-3-1-0-1--5-5-5-5-5-5-5-5-5-5-5-5-5-5-5-|

Final Chorus
F|--------------------------------------------------------------------|
C|--------------------------------------------------------------------|
G|----------------------------------------------------6-6-6-6-6-6-6-6-|
C|8\----------------3\---------------5-5-5-5-5-5-5-5------------------|

Chorus x3

Outro
F|--------------------------------------|
C|--------------------------------------|
G|--------------------------------------|
C|3--5--x-x3--5--x-x-3--5--x-x3--5-5-3-0|

F|---------------------------------------------|
C|---------------------------------------------|
G|---------------------------------------------|
C|3--5--x-x3--5--x-x-3--5--x-x3--5-5-3-0--3--5\|


"Firefly"

Intro
F|-------------------------------------------------------------|
C|-------------------------------------------------------------|
G|-3---------3---------3---------------------3----------3------|
C|---0-0---0---0-0---0----0-0---0-3-0--0---0----0-0---0---0-0--|

F|--------------------------------------------------|
C|--------------------------------------------------|
G|-3---------3---------3---------------------3------|
C|---0-0---0---0-0---0----0-0---0-3-0--0---0----0-0-|

F|-------------------------------------------------------------|
C|-------------------------------------------------------------|
G|-3---------3---------3---------------------3---------3-5-3-5-|
C|---0-0---0---0-0---0----0-0---0-3-0--0---0----0-0--0---------|


F|-------------------------------------------------------------|
C|-------------------------------------------------------------|
G|-3---------3---------3---------------------3---------3-5-3---|
C|---0-0---0---0-0---0----0-0---0-3-0--0---0----0-0--0-------0-|

Verse
F|--------------------------------------------------------------------------------|
C|--------------------------------------------------------------------------------|
G|-------------------------------------2-2--2-2-2--2-2-2-2-2-4-5-5--5-5-5--5-5-5--|
C|-5-5-5--5-5-5-5-5--7-7-7--7-7-7-7-7---------------------------------------------|


-----------------------------------|
-----------------------------------|
---4-4--4-4-4--4-4-4-4------5------|
5-4----------------------5-4---4-5-|

Chorus x2
F|---------------------------------------------------------------|
C|---------------------------------------------------------------|
G|---------------0-0-0--0-0-0----------------1-1-1--1-1--1-3-3-3-|
C|-0-0-0--0-0-0----------------5-5-5--5-5-5----------------------|

Play Intro Bar 4 x1
Verse
Chorus x2

Bridge
F|------------------|
C|------------0-2-0-|
G|-2--2--2--2-------|
C|------------------| x2

F|-------------------|
C|-------------4-5-4-|
G|-------------------|
C|-5--5--5--5--------| x2

F|-------------------------------------------------------------------------------|
C|-------------------------------------------------------------------------------|
G|-2-2-2-0-0-0--------------2-2---0-0------------------2-2-2-0-0-0---------------|
C|-------------5---5-5-5----------------5-5---5-5-5----------------5---5-5-5-5-5-|

Chorus x4
Intro Bars 3 and 4

"Break My Fall"

Intro
F|--------------------------------------------------------------------------------------|
C|--------------------------------------------------------------------------------------|
G|------0-----0--------------0-----0-------------0-------0------------0------0------0---|
C|-2-5----2-5----0-2-0--2-5----2-5----0-2-0--2-5----2-5----0-2-0--2-5----2-5----0-2---0-|

Verse
F|---------------------------------------|
C|---------------------------------------|
G|----0------0---------0------0------0---|
C|2-5----2-5------2-5----2-5----0-2----0-| x2

F|------------------------------------------|
C|------------------------------------------|
G|--------------------------------------0---|
C|-2-5-5-5-5-4-4-4-2-5-5--2-5-5-5-4-0-2---0-|

Chorus
F|--------------------------|
C|-5-7-5-7-5------5-4-------|
G|------------0-2-----5-2-5-|
C|--------------------------| x2

F|------------------------------|
C|------------------------------|
G|-3-3-3-3-3-3-3-3-0-0-0-0------|
C|--------------------------5-5-| x2

Intro
Verse
Chorus
Bridge (no bass)
Chorus

Outro
F|-------------------------------------|
C|-------------------------------------|
G|-----0------0-------------0----------|
C|-2-5----2-5----0-2-0--2-5----2-5-7-7-| x3

F|------------------------|
C|------------------------|
G|-----0-----0-----0------|
C|-2-5----2----0-2---0-2~-|


"Forget It"

Bass Comes In With Drums

Verse 1 x1
F|-----------------------------------------------------------------|
C|-----------------------------------------------------------------|
G|---------------------------------1-1-1-1-1-1-1-1-1-1-1-1-1-1-1-1-|
C|-4-4-4-4-4-4-4-4-4-4-4-4-4-4-4-4---------------------------------|

F|-----------------------------------------------------------------|
C|-1-1-1-1-1-1-1-1-1-1-1-1-1-1-1-1-2-2-2-2-2-2-2-2-2-2-2-2-2-2-2-2-|
G|-----------------------------------------------------------------|
C|-----------------------------------------------------------------|


Pre-Chorus x1
F|-----------------------------------------------------------------|
C|-----------------------------------------------------------------|
G|---------------------------------1-1-1-1-1-1-1-1-1-1-1-1-1-1-1-1-|
C|-4-4-4-4-4-4-4-4-4-4-4-4-4-4-4-4---------------------------------|

F|-----------------------------------|
C|-1-1-1-1-1-1-1-1-1-----------------|
G|-------------------2-2-2-2-4-4-4-4-|
C|-----------------------------------|


Chorus x1
F|-----------------------------------------------------------------|
C|-4-4-4-4-4-4-4-4-4-4-4-4-4-4-4-4-0-0-0-0-0-0-0-0-0-0-0-0-0-0-0-0-|
G|-----------------------------------------------------------------|
C|-----------------------------------------------------------------|

F|-----------------------------------------------------------------|
C|-2-2-2-2-2-2-2-2-2-2-2-2-2-2-2-2---------------------------------|
G|---------------------------------0-0-0-0-0-0-0-0-0-0-0-0-0-0-0-0-|
C|-----------------------------------------------------------------|


Verse 2 x1
F|-----------------------------------------------------------------|
C|-----------------------------------------------------------------|
G|---------------------------------2-2-2-2-2-2-2-2-2-2-2-2-2-2-2-2-|
C|-5-5-5-5-5-5-5-5-5-5-5-5-5-5-5-5---------------------------------|

F|-----------------------------------------------------------------|
C|-2-2-2-2-2-2-2-2-2-2-2-2-2-2-2-2-3-3-3-3-3-3-3-3-3-3-3-3-3-3-3-3-|
G|-----------------------------------------------------------------|
C|-----------------------------------------------------------------|


Interlude/Chorus x2
F|-----------------------------------------------------------------|
C|-----------------------------------------------------------------|
G|---------------------------------3-3-3-3-3-3-3-3-3-3-3-3-3-3-3-3-|
C|-6-6-6-6-6-6-6-6-6-6-6-6-6-6-6-6---------------------------------|

F|-----------------------------------------------------------------|
C|-3-3-3-3-3-3-3-3-3-3-3-3-3-3-3-3---------------------------------|
G|---------------------------------4-4-4-4-4-4-4-4-4-4-4-4-4-4-4-4-|
C|-----------------------------------------------------------------|


Verse 3 x1
F|-----------------------------------------------------------------|
C|-----------------------------------------------------------------|
G|-0-0-0-0-0-0-0-0-0-0-0-0-0-0-0-0-4-4-4-4-4-4-4-4-4-4-4-4-4-4-4-4-|
C|-----------------------------------------------------------------|


F|-----------------------------------------------------------------|
C|-4-4-4-4-4-4-4-4-4-4-4-4-4-4-4-4-5-5-5-5-5-5-5-5-5-5-5-5-5-5-5-5-|
G|-----------------------------------------------------------------|
C|-----------------------------------------------------------------|


Interlude 2 x3
F|------------------------------------------------------------------|
C|---------------------------------1-1-1-1-1-1-1-1-1-1-1-1-1-1-1-1--|
G|-1-1-1-1-1-1-1-1-1-1-1-1-1-1-1-1----------------------------------|
C|------------------------------------------------------------------|

F|---------------------3-3-1-1-3-2----------------------------------|
C|-5-5-5-5-5-5-5-5-5-5-------------1-1-1-1-1-1-1-1-1-1-1-1-1-1-1-1--|
G|------------------------------------------------------------------|
C|------------------------------------------------------------------|


End x1
F|-----------------------------------------------------------------|
C|---------------------------------3-3-3-3-3-3-3-3-3-3-3-3-3-3-3-3-|
G|-1-1-1-1-1-1-1-1-1-1-1-1-1-1-1-1---------------------------------|
C|-----------------------------------------------------------------|

F|-----------------------------1-1-3-3-----------------------------------------|
C|-5-5-5-5-5-5-5-5-5-5-5-5-5-5---------3-3-3-3-3-3-3-3-3-3-3-3-3-3-3-1-3h5-----|
G|-------------------------------------------------------------------------1---|
C|-----------------------------------------------------------------------------|

"Sooner or Later"
Intro X 12

F|---------------------|
C|---------------------|
G|---------------------|
C|0-12-10-0-10-0-10-12-|

Verse X 3

F|------------------------------------------------|
C|------------------------------------------------|
G|------------------------------------------0-0~--|
C|0~----33-33-0~----33-33-0~----33-33-3~----------|

Pre-Chorus X 1

F|--------------------------------|
C|--------0~----0-----------------|
G|1~----1---------3~--3~--3-3-3333|
C|--------------------------------|

Chorus X 2

F|----------------------------------------------------------------|
C|----------------------------------------------------------------|
G|--------------------------------------------------------1-1-3-3-|
C|3-3-3-3-3-3-3-3/5-5-5-5-5-5-5-5-0-0-0-0-0-0-0-0-5-5-5-5---------|

Intro X 4

Verse X 3

Pre-Chorus Variant X 1

F|--------------------------------------------|
C|------------0~----0-0-00--------3-3-3h4-2---|
G|1~----1-1-11------------3~--3~------------3-|
C|--------------------------------------------|

Chorus X 2

Rest until last bar of the Bridge

F|-------------------------------------------------------|
C|-------------------------------------------------------|
G|-------------------------------------------------------|
C|10h12-12-0-10h12-12-0-10h12--10h12-12-0-10h12-12-0-8-8-|

Outro Chorus

F|----------------------------------------------------------------|
C|----------------------------------------------------------------|
G|--------------------------------------------------------1-1-3-3-|
C|------------------------------------------------5-5-------------|

F|----------------------------------------------------------------|
C|----------------------------------------------------------------|
G|--------------------------------------------------------1-1-3-3-|
C|3-3-3-3-3-3-3-3/5-5-5-5-5-5-5-5-0-0-0-0-0-0-0-0-5-5-5-5---------|

F|----------------------------------------------------------------|
C|----------------------------------------------------------------|
G|1-1-1-1-1-1-1-1\0-0-0-0-0-0-0-0---------------------------------|
C|--------------------------------5-5-5-5-5-5-5-5\3-3-3-3-2-2-2-2-|

F|----------------------------------------------------------------|
C|----------------------------------------------------------------|
G|1-1-1-1-1-1-1-1\0-0-0-0-0-0-0-0-------------------------0---0---|
C|--------------------------------5-5-5-5-5-5-5-5\3-3-3-3---------|

F|----------------|
C|----------------|
G|1~--------------|
C|----------------|

"Breakdown"

Intro x2
F|---------------------------|
C|-------------5p4-----------|
G|------5p3------------------|
C|-0-0------0--------0-0-0-6-|

F|---------------------------|
C|-------------5p4-----------|
G|------5p3------------------|
C|-0-0------0--------0-0-6-6-|

Verse (repeat until Pre-Chorus)
F|-------------------------|
C|-------------------------|
G|-------------------------|
C|-0-0---0-0-0-0-0-0-0-0-0-|

Pre Chorus
F|------------------------------------------------------|
C|------------------------------------------------------|
G|------------------------------------------------------|
C|-0-0--0-0-0--0-3-3--3-3-3--3-8-8--8-8-8--8-5-5--5-8-8-|

F|---------------------------------------------------------|
C|---------------------------------------------------------|
G|---------------------------------------------------------|
C|-0-0--0-0-0--0-3-3--3-3-3--3-8-8--8-8-8--5-5-5-5-8-8-8-8-|

Chorus
F|----------------------------------------------------------------|
C|----------------------------------------------------------------|
G|-----------------5-5-5-5-5-5-5-5-4-4-4-4-4-4-4-4-6-6-6-6--------|
C|-3-3-3-3-3-3-3-3----------------------------------------1p0-1h2-|

F|---------------------------------------------------------------|
C|---------------------------------------------------------------|
G|-----------------5-5-5-5-5-5-5-5-4-4-4*-4*-4*-4-6-6-6-6--------|
C|-3-3-3-3-3-3-3-3---------------------------------------1p0-1h2-|

Intro x1
Verse
Pre-Chorus
Chorus

Bridge
F|--------------------------------------|
C|-------3---------5------------3-------|
G|-----0---0-----3---3-------0----0-----|
C|-0-0-------0-0--------0-0---------0-0-|

F|------------------------------|
C|------------------------------|
G|------------------------------|
C|-0-0--0-0-0--0-0-0--0-1p0-1h2-|

Chorus x4

Outro
F|---------------------------|
C|-------------5p4-----------|
G|------5p3------------------|
C|-0-0------0--------0-0-6-6-|

F|--------------------------------|
C|-------------5p4----------------|
G|------5p3-----------------------|
C|-0-0------0-------0-3-7-6-5-3-0-|


"Away"

Intro/Verse
F|-------------------------------------------------------------------|
C|-------------------------------------------------------------------|
G|-------------------------------------3-----3---------5-----5-------|
C|--2--5--2--5--2-0-2--0--2--0--2-0-2-----2-----2-0-2-----2-----2-5--|

Chorus
F|--------------------------------|
C|--------------------------------|
G|--3---3--3-3-3--3------------2--|
C|-------------------5--5-4--0----|

Bridge
F|------------------------------------------------------------------------|
C|------------------------------------------------------------------------|
G|---------------------------------------------------------------------0--|
C|--0h2p0h5--0--2-----0h2p0h5--0--5--0—0h2p0h5--0--2-----0h2p0h5--0--5----|

Outro
F|-------------------------------------------|
C|-------------------------------------------|
G|--------------------3\---------------------|
C|--2-2-2-5-5-5-0-0-0------5-5-5-4-4-4-0-2\--|

"Believe"

Intro/Main Riff:
on the 3rd time, you can start playing an octave higher if u want to
F|-----------------------------------|
C|-----------------------------------|
G|-4-------------3-4-------------3-5-|
C|---4-2h4-4-4-2-----4-2h4-4-4-2-----| x4

Verses:
F|---------------------------------------------------------------------------|
C|---------------------------------------------------------------------------|
G|---------------------------------------------------------------------------|
C|-2h4--2-2-2h4--2-2-2h4--2-2-2h4-5p4-2h4--2-2-2h4--2-2-2h4-2-2-2~-3~--------|

Pre-Chorus
F|-------|
C|-------|
G|-------|
C|-2~-5--|

Chorus:
F|--------------------------------------------|
C|--------------------------------------------|
G|-----0-----------0---2-----2----------------|
C|-4-2---4-2-4-2-4---4---4-2---4-2-4-2-4/7-7--|

Bridge Thingy:
F|-----------------------------------------------------|
C|---------------------------4-2-----------------------|
G|-------------------------------4p3p2-----------------|
C|-2h4--2-2-2h4--2-2-2h4--22-----------5p4-------------|

Verse

Chorus 2
F|----------------------------------------------------|
C|----------------------------------------------------|
G|-----0-----------0---2------0-------------0*--------|
C|-4-2---4-2-4-2-4---4----4-2---4-2-4-2-4-2---2h4-x2--|

Interlude Part 1:
F|----------------------------------------|
C|----------------------------------------|
G|-2-2-/4-4--/5-5--/7-2-2-/4-4-/5-5-/7----|
C|----------------------------------------|x2

Interlude Part 2:
F|----------------------------------------------------|
C|----------------------------------------------------|
G|-----------0-----------0---2------0-----------------|
C|-4~----4-2---4-2-4-2-4---4----4-2---4-2-4-2-4/7-7---|

Chorus 2
Intro

Ending:
F|--------|
C|--------|
G|--------|
C|-4-2/4~-|

Intro / Verse   X 3

G|--------------------|--------------------|
D|--------------------|--------------------|
A|--------------------|--------------------|
C|-0---0---0--5---5---|-0---0---0--5---5---|

G|--------------------|--------------------|
D|--------------------|--------------------|
A|------------2---2---|-0---0---0----------|
C|-0---0---0----------|------------5---5---|

Chorus  X 2

G|--------------------|--------------------|
D|--------------------|--------------------|
A|--------------------|--------------------|
C|-0---0---0--2---2---|-5---5---5--5---5---|

Verse  X 2

F|--------------------|--------------------|
C|--------------------|--------------------|
G|--------------------|--------------------|
C|-0---0---0--5---5---|-0---0---0--5---5---|

F|--------------------|--------------------|
C|--------------------|--------------------|
G|------------2---2---|-0---0---0----------|
C|-0---0---0----------|------------5---5---|

Chorus  X 4

F|--------------------|--------------------|
C|--------------------|--------------------|
G|--------------------|--------------------|
C|-0---0---0--2---2---|-5---5---5--5---5---|

Bridge

F|--------------------|--------------------|
C|--------------------|--------------------|
G|-2---2---2----------|--------------------|
C|------------5---5---|-4---4---4--5---5---|

F|--------------------|--------------------|
C|--------------------|--------------------|
G|-2---2---2----------|-0---0---0----------|
C|------------5---5---|------------5---5---|

F|--------------------|--------------------|
C|--------------------|--------------------|
G|-2---2---2----------|--------------------|
C|------------5---5---|-4---4---4--5---5---|

F|--------------------|--------------------|
C|--------------------|--------------------|
G|-2---2---2----------|-0---0---0--0---0---|
C|------------5---5---|--------------------|

Final Chorus / Outro

F|--------------------|--------------------|
C|--------------------|--------------------|
G|--------------------|--------------------|
C|-0---0---0--5---5---|-0---0---0--5---5---|

F|--------------------|--------------------|
C|--------------------|--------------------|
G|--------------------|--------------------|
C|-0---0---0--2---2---|-5---5---5--5---5-7-|

F|--------------------|--------------------|
C|--------------------|--------------------|
G|--------------------|--------------------|
C|-0---0---0--5---5---|-0---0---0--5---5---|

F|--------------------|--------------------|
C|--------------------|--------------------|
G|--------------------|--------------------|
C|-0---0---0--2---2---|-5---5---5--5---5---|

F|--------------------|--------------------|
C|--------------------|--------------------|
G|--------------------|--------------------|
C|-0---0---0--2---2---|-5---5---5--5---5---|

F|--------------------|--------------------|
C|--------------------|--------------------|
G|--------------------|--------------------|
C|-0---0---0--2---2---|-5~-----------------|
comments
print report bad tab
I want to post or [tab]
guest
You may want to rate the tab now too:
select rating
Please do not post tabs as comments. Select "correction" instead!