Oops, an error
Loading. Please wait.

We Are Not Alone Tab

ver1
ver1

Album

More versions @911Tabs.com
15,510 views 21 this week
8 commentsread comments
1 2 3 4 5
accurate
x 13
add to favorites launch autoscroll
font size
0
reset
Autoscroll
+/-
esc
set tempo
stop
WARNING: You are trying to view
                                    content from Ultimate-Guitar.com
                                    in an unauthorized application,
                                    which is prohibited.

                                    Please use an official Ultimate
                                    Guitar Tabs application for iPhone,
                                    iPad or Android to access legitimate
                                    chords, guitar, bass, and drum tabs
                                    from Ultimate-Guitar.com database.

                                    Type "ultimate guitar tabs" in Apple
                                    App Store's or Android Market's
                                    search to find the application.
Band-Breaking Benjamin
Album-We Are Not Alone
Put together by Jordan Kalck

IMPORTANT: I did not write the tabs, I only copied the highest rated tabs from this website.
PLEASE rate this cause this is my first tab. Enjoy! 

1. So Cold 

Tuning: Drop C

INTRO
 1             2                    3              4         
E|-------------|--------------------|--------------|-------------------|
A|-------------|--------------------|--------------|-------------------|
F|-------------|--------------------|--------------|-------------------|
C|---------3---|------------8---7---|---------3----|------------8--7---|
G|--5---5--5---|--10---10--10---8---|--5---5--5----|--10---10--10--8---|
C|0---0--------|0----0--------------|0---0---------|0----0-------------|




 5    RHYTHM   6                    7              8                   
E|-------------|--------------------|--------------|-------------------|
A|-------------|--------------------|--------------|-------------------|
F|-------------|--------------------|--------------|-------------------|
C|---------3---|------------8---7---|---------3----|------------8--7---|
G|--5---5--5---|--10---10--10---8---|--5---5--5----|--10---10--10--8---|
C|0---0--------|0----0--------------|0---0---------|0----0-------------|
 |             |                    |              |                   |
 |    LEAD     |                    |              |                   |
E|10-----------|10------------------|10------------|10-----------------|
A|----10--13---|---10--10-13-10-----|----10--10-13-|--10--10-13-10-----|
F|-------------|-----------------12-|--------------|----------------12-|
C|-------------|--------------------|--------------|-------------------|
G|-------------|--------------------|--------------|-------------------|
C|-------------|--------------------|--------------|-------------------|



 9            RHYTHM            10                          
E|------------------------------|---------------------------|
A|------------------------------|---------------------------|
F|------------------------------|---------------------------|
C|--------------------3---------|-------------------8----7--|
G|-----5---------5----5---------|----10-------10---10----8--|
C|0---------0-------------------|0--------0-----------------|
 |                              |                           |
 |             LEAD             |                           |
E|----------10------------------|-------10------------------|
A|-----------------10----13-----|----------10--10-13-10-----|
F|------------------------------|------------------------12-|
C|------------------------------|---------------------------|
G|------------------------------|---------------------------|
C|------------------------------|---------------------------|
 |                              |                           |
 |           RHYTHM 2           |                           |
E|------------------------------|---------------------------|
A|------------------------------|---------------------------|
F|------------------------------|---------------------------|
C|--------------2-2-------------|--------------2-2----------|
G|--8-5---3-5-------3-------3-5-|--8-5---3-5-------3---3-5--|
C|0-----0-----0-------0-3-5-----|0-----0-----0-------0-----3|




 11           RHYTHM            12
E|------------------------------|---------------------------|
A|------------------------------|---------------------------|
F|------------------------------|---------------------------|
C|--------------------3---------|-------------------8----7--|
G|-----5---------5----5---------|----10-------10---10----8--|
C|0---------0-------------------|0--------0-----------------|
 |                              |                           |
 |             LEAD             |                           |
E|----------10------------------|--------10--------------12-|
A|-----------------10----13-----|------------10--13--10-----|
F|------------------------------|---------------------------|
C|------------------------------|---------------------------|
G|------------------------------|---------------------------|
C|------------------------------|---------------------------|
 |                              |                           |
 |           RHYTHM 2           |                           |
E|------------------------------|---------------------------|
A|------------------------------|---------------------------|
F|------------------------------|---------------------------|
C|--------------2-2-------------|--------------2-2----------|
G|--8-5---3-5-------3-------3-5-|--8-5---3-5-------3---3-5--|
C|0-----0-----0-------0-3-5-----|0-----0-----0-------0-----3|




HEAVY PART OF INTRO
 13           LEAD              14 
E|--------10--------------------|--------10--------------12-|
A|------------10--10-13--10-----|------------10--13--10-----|
F|---------------------------12-|---------------------------|
C|------------------------------|---------------------------|
G|------------------------------|---------------------------|
C|------------------------------|---------------------------|
 |                              |                           |
 |            RHYTHM 2          |                           |
E|------------------------------|---------------------------|
A|------------------------------|---------------------------|
F|------------------------------|---------------------------|
C|--------------2-2-------------|--------------2-2----------|
G|--8-5---3-5-------3-------3-5-|--8-5---3-5-------3---3-5--|
C|0-----0-----0-------0-3-5-----|0-----0-----0-------0-----3|




 15           LEAD              16 
E|--------10--------------------|--------10--------------12-|
A|------------10--10-13--10-----|------------10--13--10-----|
F|---------------------------12-|---------------------------|
C|------------------------------|---------------------------|
G|------------------------------|---------------------------|
C|------------------------------|---------------------------|
 |                              |                           |
 |            RHYTHM 2          |                           |
E|------------------------------|---------------------------|
A|------------------------------|---------------------------|
F|------------------------------|---------------------------|
C|--------------2-2-------------|--------------2-2-----5----|
G|--8-5---3-5-------3-------3-5-|--8-5---3-5-------3---3--3-|
C|0-----0-----0-------0-3-5-----|0-----0-----0-------0----3-|




VERSE RHYTHM
E|--------------|--------------|
A|--------------|--------------|
F|--------------|--------------|
C|0------------3|0------------3| 
G|0------------3|0------------3|
C|0------------3|0------------3|

VERSE LEAD
|---------------|---------------|---------------|-------------|
|10-8-11-10-----|10-8-11-10-----|10-8-11-10-----|10-8---------|
|-----------10-7|-----------10-7| ----------10-7|-----10-9-7--|Repeat
|---------------|---------------|---------------|------------8|
|---------------|---------------|---------------|-------------|
|---------------|---------------|---------------|-------------|

|---------------|---------------|--------10-8---|-------------|
|10-8-11-10-----|10-8-11-10-----|10-8-11--------|10-8---------|
|-----------10--|---------------|---------------|-----10-9-7--|
|---------------|---------------|---------------|-------------|
|---------------|---------------|---------------|-------------|
|---------------|---------------|---------------|-------------|




CHORUS
E|--------|----------------------| -------|------------------------|
A|---10---|----------------------|---10---|------------------------|
F|---10---|----------------------|---10---|------------------------|
C|8-- 8---|0-0--0-0--0-0--0-0--10|8-- 8---|0-0--0-0--0-0--0-0--10-7|
G|8-- 8---|0-0--0-0--0-0--0-0--10|8-- 8---|0-0--0-0--0-0--0-0--10-7|
C|8-- 8---|0-0--0-0--0-0--0-0--10|8-- 8---|0-0--0-0--0-0--0-0--10-7|

E|--------|------------|--------| -------| 
A|---10---|------------|---10---| -------| 
F|---10---|7--9--10--12|---10---| -------| 
C|8-- 8---|------------|8-- 8---|10------| 
G|8-- 8---|5--7-- 8--10|8-- 8---|10------| 
C|8-- 8---|------------|8-- 8---|10------| 
                               
                                | -------|
                                | -------|     
                      2nd chorus| -------|
                    last measure|10--7---|
                                |10--7---|  
                                |10--7---|
                             
                                | -------|
                                | -------|     
                      3rd chorus| -------|
                    last measure|10--11--|
                                |10--11--|
                                |10--11--|




BRIDGE 1
E|------------------------|------------------------|
A|------------------------|------------------------|
F|------------------------|------------------------|Repeat
C|------------------------|------------------------|  3x
G|--------5------------5--|-------5--------3-------|
C|-0--3-5----0--3--5-6----|0--3-5----6-5-6----6-5-6|




Bridge 2
E|-----------------------------------|
A|-----------------------------------|
F|10-----10-----10-----10-----9------|Repeat
C| 0-0-0- 0-0-0- 0-0-0- 0-0-0-8-8-8-8|
G|-----------------------------------|
C|-----------------------------------|

E|-----------------------------------|
A|10-----10-----10-----10-----8------|
F|10-----10-----10-----10-----9------|Repeat
C| 0-0-0- 0-0-0- 0-0-0- 0-0-0-8-8-8-8|
G|-----------------------------------|
C|-----------------------------------|




OUTRO
E|--------------|       |----------------|       |----------| 
A|------------10|       |--------------10|       |----------| 
F|------------10|Repeat |7--10--9--10--10|Repeat |7--10--9--|
C|0----------- 8|  3x   |-------------- 8|  2x   |----------|
G|0----------- 8|       |5-- 8--7-- 8-- 8|       |5-- 8--7--|
C|0----------- 8|       |0------------- 8|       |0---------|





2. Simple Design

Tuning: Low To High C G C F A D

| /  slide up
| \  slide down
| h  hammer-on
| p  pull-off
| ~  vibrato
| +  harmonic
| x  Mute note
============================================================================

	Intro:
D|--------------------------------------------------------------|
A|--------------------------------------------------------------|
F|--5--4--------------------------------------------------------|
C|--5--4--7--5--0--3--------------------------------------------|
G|--3--2--7--5--0—-3-----------------3-h5-----------3-h5--3-----|
C|--------7--5--0--3-----0--0-----0--------0--0--0-----------3--|

D|--------------------------------------------------------------|
A|--------------------------------------------------------------|
F|--5--4--------------------------------------------------------|
C|--5--4--7--5--0--3--------------------------------------------|
G|--3--2--7--5--0--3-----------------3-h5-----------3-h5--3-----|
C|--------7--5--0--3-----0--0--0--0--------0--0--0-----------3--|

D|--------------------------------------------------------------|
A|--------------------------------------------------------------|
F|--7--5--9--7--5--7--------------------------------------------|
C|--------------------------------------------------------------|
G|--5--3--7--5--3--5-----------------3-h5-----------3-h5--3-----|
C|-----------------------0--0-----0--------0--0--0-----------3--|

D|-----------|
A|-----------|
F|-----7-----|
C|--0--7--3--|
G|--0--5--3--|
C|--0-----3--|

D|--------------------------------------|
A|--------------------------------------|
F|-.----------------------5--5--5—-5--.-|
C|-.-0--0--3--0-----0--0--5--5--5—-5--.-|
G|---0--0--3--0-----0--0--3--3--3—-3----|
C|---0--0--3--0-----0--0----------------|

 
	Verse:
D|-----------------|
A|-----------------|
F|-.-7------/10--.-|
C|-.-7------/10--.-|
G|---5------/8-----|
C|----------/8-----|

D|--------------------------------------|
A|--------------------------------------|
F|-.----------------------5--5--5—-5--.-|
C|-.-0--0--3--0-----0--0--5--5--5—-5--.-|
G|---0--0--3--0-----0--0--3--3--3—-3----|
C|---0--0--3--0-----0--0----------------|
 
  2X
D|-----------------------|
A|-----------------------|
F|--4--------------------|
C|--4—-0--x--5—-0---—-0--|
G|--2--0--x—-5-—0—--—-0--|
C|-----0--x--5—-0-—-—-0--|

	Chorus:  3X
D|--------------------------|
A|--------------------------|
F|-.-7-----9-----7-----7--.-|
C|-.-7-----7-----7-----5--.-|
G|---5-----7-----5-----5----|
C|---------7-----4-----5----|

	Chorus Last Time
D|--------------------------|
A|--------------------------|
F|--7-----------4--------7--|
C|--7-----7-----4--4--5--7--|
G|--5-----7-----2--4--5--5--|
C|--------7--------4--5-----|

D|--------------------------------------|
A|--------------------------------------|
F|-.----------------------5--5--5—-5--.-|
C|-.-0--0--3--0-----0--0--5--5--5—-5--.-|
G|---0--0--3--0-----0--0--3--3--3—-3----|
C|---0--0--3--0-----0--0----------------|

	Verse:
D|-----------------|
A|-----------------|
F|-.-7------/10--.-|
C|-.-7------/10--.-|
G|---5------/8-----|
C|----------/8-----|
 

D|--------------------------------------|
A|--------------------------------------|
F|-.----------------------5--5--5—-5--.-|
C|-.-0--0--3--0-----0--0--5--5--5—-5--.-|
G|---0--0--3--0-----0--0--3--3--3—-3----|
C|---0--0--3--0-----0--0----------------|

  2X
D|-----------------------|
A|-----------------------|
F|--4--------------------|
C|--4—-0--x--5—-0---—-0--|
G|--2--0--x—-5-—0—--—-0--|
C|-----0--x--5—-0-—-—-0--|

	Chorus:  3X
D|--------------------------|
A|--------------------------|
F|-.-7-----9-----7-----7--.-|
C|-.-7-----7-----7-----5--.-|
G|---5-----7-----5-----5----|
C|---------7-----4-----5----|

	Chorus Last Time
D|--------------------------|
A|--------------------------|
F|--7-----------4--------7--|
C|--7-----7-----4--4--5--7--|
G|--5-----7-----2--4--5--5--|
C|--------7--------4--5-----|

D|-------------------------------------------------------------------|
A|-------------------------------------------------------------------|
F|--7-----------11--11/12\11---14--14/16\14---14\12----12\11---11\9--|
C|-------------------------------------------------------------------|
G|--5-----------9----9/10\9----12--12/16\12---12\10----10\9-----9\7--|
C|-------------------------------------------------------------------|

D|-------------------------------|
A|-------------------------------|
F|--9\8---8\9----11/12\11/12\11--|
C|-------------------------------|
G|--7\6---6\7-----9/10\-9/10\-9--|
C|-------------------------------|
  2X
D|------------0-h2-----------------0-h2-----------------2-h3-----|
A|--------3---------3-----------3--------3-----------3--------3--|
F|-.----2---------------------2--------------------2-------------|
C|-.-0---------------------5--------------------4----------------|
G|---------------------------------------------------------------|
C|---------------------------------------------------------------|
 

D|----------5------------|
A|-------3-----3/-5-\3---|
F|---------------------.-|
C|-0-------------------.-|
G|-----------------------|
C|-----------------------|

  2X
D|--------------------------------------------|
A|--------------------------------------------|
F|--------------------------------------------|
C|--0--0--0-----------0--0--0-----------------|
G|--0--0--0-----------0--0--0-----3-----------|
C|--0--0--0-----------0--0--0--------3--0--3--|

      /1                       /1...........  /1\          
D|------------------------------------------------------------------|
A|--14------------17--15--17--17------------17----15----------------|
F|----------------------------------------------------14--------14--|
C|------------------------------------------------------------------|
G|------------------------------------------------------------------|
C|------------------------------------------------------------------|

	Chorus:  5X
D|--------------------------|
A|--------------------------|
F|-.-7-----9-----7-----7--.-|
C|-.-7-----7-----7-----5--.-|
G|---5-----7-----5-----5----|
C|---------7-----4-----5----|

	Chorus Last Time
D|--------------------------|
A|--------------------------|
F|--7-----------4--------7--|
C|--7-----7-----4--4--5--7--|
G|--5-----7-----2--4--5--5--|
C|--------7--------4--5-----|

D|--------------------------------------|
A|--------------------------------------|
F|------------------------5--5--5—-5----|
C|---0--0--3--0-----0--0--5--5--5—-5----|
G|---0--0--3--0-----0--0--3--3--3—-3----|
C|---0--0--3--0-----0--0----------------|

D|-------------------------------|
A|-------------------------------|
F|------------------5--5--5------|
C|---0--0--3--0-----5--5--5—-0---|
G|---0--0--3--0-----3--3--3—-0---|
C|---0--0--3--0--------------0---|
 

D|-------------------------------------------------|
A|-------------------------------------------------|
F|-------------------------------------------------|
C|-------------------------------------------------|
G|-----3--------3-----------------------------3—5--|
C|--0-----5--3-----0--0--5--0--0—-5--3--0--0-------|

D|-------------------------------------------------|
A|-------------------------------------------------|
F|-------------------------------------------------|
C|--------------3-------------------------0-h3-----|
G|-----3-----------5--3--5-------3-h5-----------3--|
C|--0-----5--3-------------------------3-----------|

D|-------------------------------------------------|
A|-------------------------------------------------|
F|-------------------------------------------------|
C|-------------------------------------------------|
G|-----3--------3-----------------------------3—5--|
C|--0-----5--3-----0--0--5--0--0—-5--3--0--0-------|

D|-----------------------|
A|-----------------------|
F|-----7-----------------|
C|--0--7--3-----0--0--0--|
G|--0--5--3-----0--0—-0--|
C|--0-----3-----0--0--0--|


3.Follow

Tuning: Drop C




INTRO
E|-----|-------------------|-------------------|
A|-----|-------------------|-------------------|
F|-----|-------------------|-------------------|
C|-----|-------------------|-------------------|
G|5-3-0|3--5-5-5-5-xx-5-3-0|8--5-5-5-5-xx-5-3-0|
C|5-3-0|3--5-5-5-5-xx-5-3-0|8--5-5-5-5-xx-5-3-0|

E|-------------------|-----------------|
A|-------------------|-----------------|
F|-------------------|-----------------|
C|-------------------|-----------------|
G|3--5-5-5-5-xx-5-3-0|8--5-5-5-5-x0--x3|
C|3--5-5-5-5-xx-5-3-0|8--5-5-5-5-x0--x3|




VERSE
E|---------|----------|------------|--------------|
A|---------|----------|------------|--------------|
F|---------|----------|------2-2---|0-0-0-0-0-0--2|
C|8--------|hold chord|8-8---3-3---|1-1-1-1-1-1--3|
G|5--------|-for two--|5-5---3-3---|1-1-1-1-1-1--3|
C|5--------|-measures-|5-5---3-3---|1-1-1-1-1-1--3|

E|---------|----------|----------------|-----------------|
A|---------|----------|----------------|-----------------|
F|---------|----------|--------2-2-2---|0-0-0--0-0-0-0--2|
C|8--------|hold chord|8-8-8---3-3-3---|1-1-1--1-1-1-1--3|
G|5--------|-for two--|5-5-5---3-3-3---|1-1-1--1-1-1-1--3|
C|5--------|-measures-|5-5-5---3-3-3---|1-1-1--1-1-1-1--3|



        RHYTHM
E|-------------------|----------------|-------------------|----------------|
A|-------------------|----------------|-------------------|----------------|
F|-------------------|----------------|-------------------|----------------|
C|-------------------|----------------|-------------------|----------------|
G|-------------------|-------------333|-------------------|-------------333|
C|5-5555555-3-3333333|1-11111111111---|5-5555555-3-3333333|1-11111111111---|
 |                   |                |                   |                |
 |       LEAD        |                |                   |                |
E|-------------------|---3--3------111|3------------------|---10--10----111|
A|-------------------|---3--3------111|3------------------|---11--11----111|
F|-------------------|---3--3---------|3------------------|---12--12-------|
C|-------------------|----------------|-------------------|----------------|
G|-------------------|----------------|-------------------|----------------|
C|-------------------|----------------|-------------------|----------------|



        RHYTHM
E|-------------------|----------------|-------------------|
A|-------------------|----------------|-------------------|
F|-------------------|----------------|-------------------|
C|-------------------|----------------|1------------------|
G|-------------------|----------------|1------------------|
C|5-5555555-3-3333333|1-11111111111-3-|1------------------|
 |                   |                |                   |
 |       LEAD        |                |                   |
E|3-----------------1|---6--6-------6-|-------------------|
A|3-----------------1|---8--8-------8-|-------------------|
F|3------------------|---7--7-------7-|-------------------|
C|-------------------|----------------|-------------------|
G|-------------------|----------------|-------------------|
C|-------------------|----------------|-------------------|




CHORUS
E|------|------|------|------|------|------|------|-------------------|
A|------|------|6-----|6-----|------|------|6-----|6--6-----6--6------|
F|------|------|7-----|7-----|------|------|7-----|7--7-xxx-7--7------|
C|8-----|3-----|5-----|8-----|8-----|3-----|5-----|8--8-xxx-8--8------|
G|8-----|3-----|5-----|6-----|8-----|3-----|5-----|6--6-xxx-6--6-5-3-0|
C|8-----|3-----|5-----|------|8-----|3-----|5-----|--------------5-3-0|




BRIDGE
E|-----------|----------------|-----------|----------------|
A|-----------|----------------|-----------|----------------|
F|-----------|----------------|-----------|----------------|
C|6-5-3-1-0-1|----------------|6-5-3-1-0-1|----------------|
G|6-5-3-1-0-1|----------------|6-5-3-1-0-1|----------------|
C|6-5-3-1-0-1|5555555500000000|6-5-3-1-0-1|5555555555553355|

E|-----------|----------------|-----------|----------------|
A|-----------|----------------|-----------|----------------|
F|-----------|----------------|-----------|----------------|
C|6-5-3-1-0-1|55555555--------|6-5-3-1-0-1|5555555555555555|
G|-----------|--------55555555|-----------|----------------|
C|6-5-3-1-0-1|5555555500000000|6-5-3-1-0-1|5555555555553355|




1ST 2 MEASURES AFTER BRIDGE
E|-----------|-----------|
A|-----------|-----------|
F|-----------|-----------|
C|8\---------|3/---------|
G|8\---------|3/---------|
C|8\---------|3/---------|




OUTRO
E|------------------|-----------------|
A|------------------|-----------------|
F|------------------|-----------------|
C|------------------|-----------------|
G|3--5--x-x3--5--x-x|3--5--x-x3--5-650|
C|3--5--x-x3--5--x-x|3--5--x-x3--5-650|

E|------------------|-----------------|-----|
A|------------------|-----------------|-----|
F|------------------|-----------------|-----|
C|------------------|-----------------|3--5\|
G|3--5--x-x3--5--x-x|3--5--x-x3--5-650|3--5\|
C|3--5--x-x3--5--x-x|3--5--x-x3--5-650|3--5\|


4. Firefly

Tuning: CGCFAD (Drop D, and one step down)

Intro

D-------------------------------------------------------------|
A-------------------------------------------------------------|
F-------------------------------------------------------------|
C-------------------------------------------------------------|
G-10-0*0*-0-10-0*0*-0-10-0*-0-3-0*-0*-0-10-0*-0*-0-10-12-x----|
C-10-0*0*-0-10-0*0*-0-10-0*-0-3-0*-0*-0-10-0*-0*-0-10-12-x----|

D-------------------------------------------------------------|
A-------------------------------------------------------------|
F----------------------------------------------------11-------|
C-------------------------------------------------------------|
G-10-0*0*-0-10-0*0*-0-10-0*-0-3-0*-0*-0-10-0*-0*--------------|
C-10-0*0*-0-10-0*0*-0-10-0*-0-3-0*-0*-0-10-0*-0*--------------|

D-------------------------------------------------------------|
A-------------------------------------------------------------|
F-------------------------------------------------------------|
C-------------------------------------------------------------|
G-10-0-0-0-10-0-0-0-10-0-0-3-0-0-0-10-0-0-0-10h12-10p0--------|
C-10-0-0-0-10-0-0-0-10-0-0-3-0-0-0-10-0-0-0-10h12-10p0--------|

D-------------------------------------------------------------|
A-------------------------------------------------------------|
F-------------------------------------------------------------|
C-------------------------------------------------------------|
G-10-0-0-0-10-0-0-0-10-0-0-3-0-0-0-10-0-0-0-10h12-10\0--------|
C-10-0-0-0-10-0-0-0-10-0-0-3-0-0-0-10-0-0-0-10h12-10\0--------|

Verse (clean with phaser)

D-------------------------------------------------------------|
A-------------------------------------------------------------|
F---------0----------0------------0----------0----------------|
C---4---4---4---4------4----4---4---4---4------4--------------|
G-2---2-------2----2------0---0-------0----0------------------|
C-------------------------------------------------------------|

Continued Verse (distorted)

D-------------------------------------------------------------------------|
A-------------------------------------------------------------------------|
F-----0-----------0-----------0-----------0-----------0-----------0-------|
C---4---4---4---4---4---4---4---4---4---4---4---4---4---4---4---4---4-----|
G-------------------------2-------2---0-------0---------------------------|
C-4-------4---5-------5---------------------------4-------4---5-------5-*-|

Chorus

D-------------------------------------------------------------------------|
A-------------------------------------------------------------------------|
F-11-11-11--11-11-11--9-9-9--9-9-9--7-7-7--7-7-7--10-10-10--10-10/12-1212-|
C-x--x--x---x--x--x---7-7-7--7-7-7--5-5-5--5-5-5--8--8--8---8--8-/10-1010-|
G-9--9--9---9--9--9---7-7-7--7-7-7--5-5-5--5-5-5--8--8--8---8--8-/10-1010-|
C-0--0--0---0--0--0---7-7-7--7-7-7--5-5-5--5-5-5--8--8--8---8--8-/10-1010-|

D-------------------------------------------------------------------------|
A-------------------------------------------------------------------------|
F-11-11-11--11-11-11--9-9-9--9-9-9--7-7-7--7-7-7--10-10-10--10-10\9/10----|
C-x--x--x---x--x--x---7-7-7--7-7-7--5-5-5--5-5-5--8--8--8---8--x-\x/x-----|
G-9--9--9---9--9--9---7-7-7--7-7-7--5-5-5--5-5-5--8--8--8---8--8-\7/8-----|
C-0--0--0---0--0--0---7-7-7--7-7-7--5-5-5--5-5-5--8--8--8---8-------------|

D-------------------------------------------------------------|
A-------------------------------------------------------------|
F-------------------------------------------------------------|
C-------------------------------------------------------------|
G-10-0-0-0-10-0-0-0-10-0-0-3-0-0-0-10-0-0-0-10h12-10\0--------|
C-10-0-0-0-10-0-0-0-10-0-0-3-0-0-0-10-0-0-0-10h12-10\0--------|

Verse (clean with phaser)

D-------------------------------------------------------------|
A-------------------------------------------------------------|
F-------0-----------------------------------------------------|
C---4-----4---4---4-------------------------------------------|
G-2---2-----2-2-----0-----------------------------------------|
C-------------------------------------------------------------|

Continued Verse (distorted)

D-------------------------------------------------------------|
A-------------------------------------------------------------|
F-----0-----------0-----------0-----------0-------------------|
C---4---4---4---4---4---4---4---4---4---4---4---4-------------|
G-2-------2---0-------0---------------------------------------|
C-------------------------4-------4---5-------5---------------|

D-------------------------------------------------------------|
A-------------------------------------------------------------|
F-----0-----------0-----------0-----------0-------------------|
C---4---4---4---4---4---4---4---4---4---4---4-----------------|
G-2-------2---0-------0---------------------------------------|
C-------------------------4-------4---5-------5-*-------------|

Chorus

Bridge

Guitar 1:
D-------------------------------------------------------------|
A-------------------------------------------------------------|
F-----------------7/9\7-----------------7/9\7-----------------|
C-9-x-9-x-9-x-9-x-x/x\x-9-x-9-x-9-x-9-x-x/x\x-----------------|
G-9-x-9-x-9-x-9-x-5/7\5-9-x-9-x-9-x-9-x-5/7\5-----------------|
C-9-x-9-x-9-x-9-x-------9-x-9-x-9-x-9-x-----------------------|

Guitar 2:
D-------------------------------------------------------------|
A-------------------------------------------------------------|
F-----------------11/12\11-----------------11/12\11-----------|
C-9-x-9-x-9-x-9-x-x-/x-\x--9-x-9-x-9-x-9-x-x-/x-\x------------|
G-9-x-9-x-9-x-9-x-9-/10\9--9-x-9-x-9-x-9-x-9-/10\9------------|
C-9-x-9-x-9-x-9-x----------9-x-9-x-9-x-9-x--------------------|

Guitar 1:
D-------------------------------------------------------------|
A-------------------------------------------------------------|
F-----------------14/16\14-----------------14/16\14-----------|
C-5-x-5-x-5-x-5-x-x-/x-\x--5-x-5-x-5-x-5-x-x-/x-\x------------|
G-5-x-5-x-5-x-5-x-12/14\12-5-x-5-x-5-x-5-x-12/14\12-----------|
C-5-x-5-x-5-x-5-x----------5-x-5-x-5-x-5-x--------------------|

Guitar 2:
D-------------------------------------------------------------|
A-------------------------------------------------------------|
F-----------------11/12\11-----------------11/12\11-----------|
C-5-x-5-x-5-x-5-x-x-/x-\x--5-x-5-x-5-x-5-x-x-/x-\x------------|
G-5-x-5-x-5-x-5-x-9-/10\9--5-x-5-x-5-x-5-x-9-/10\9------------|
C-5-x-5-x-5-x-5-x----------5-x-5-x-5-x-5-x--------------------|

D-------------------------------------------------------------|
A------------------------------12^----------------------------|
F-----------11^-----------------------------------------------|
C-9--7--5---------99*-77*-55---------9--7--5-5-5-5-5-5--------|
G-9--7--5---------99*-77*-55---------9--7--5-5-5-5-5-5--------|
C-9--7--5---------99*-77*-55---------9--7--5-5-5-5-5-5--------|
                                             PM-----

Chorus

Throughout the second half of the chorus, this is played:
D-------------------------------------------------------------|
A---7-10-8-7-------10-8-7-------10-8-7-------10-8-10/11\10----|
F-7----------7---7------------7------------7------------------|
C--------------7----------7-5----------5-8--------------------|
G-------------------------------------------------------------|
C-------------------------------------------------------------|

Outro

D-------------------------------------------------------------|
A-------------------------------------------------------------|
F-------------------------------------------------------------|
C-------------------------------------------------------------|
G-10-0-0-0-10-0-0-0-10-0-0-3-0-0-0-10-0-0-0-10h12-10p0--------|
C-10-0-0-0-10-0-0-0-10-0-0-3-0-0-0-10-0-0-0-10h12-10p0--------|

D-------------------------------------------------------------|
A-------------------------------------------------------------|
F-------------------------------------------------------------|
C-------------------------------------------------------------|
G-10-0-0-0-10-0-0-0-10-0-0-3-0*0*-0-10-0*0*-0-10h12-*---------|
C-10-0-0-0-10-0-0-0-10-0-0-3-0*0*-0-10-0*0*-0-10h12-*---------|

* = pause
h = hammer on
p = pick off
\ = slide down
/ = slide up
^ = bend note




5. Break My Fall

Tuning: CGCFAD (Drop D and one step down)

Intro

D--------------------------------------------------|
A--------------------------------------------------|
F--------------------------------------------------|
C-4/6-6----4/6-6---4---4/6-6----4/6-6---4----------|
G-2/4-4-xx-2/4-4-0-2-0-2/4-4-xx-2/4-4-0-2-0--------|
C-2/4-4-xx-2/4-4-0-2-0-2/4-4-xx-2/4-4-0-2-0--------|

Verse

D-----------------------------------------------0------|
A----------------------------------------------3-3-----|
F---------------------------------------------2-----2--|
C-4/6-6----4/6-6---4---4/6-6----4/6-6---4-9-0----------|
G-2/4-4-xx-2/4-4-0-2-0-2/4-4-xx-2/4-4-0-2-7-0----------|
C-2/4-4-xx-2/4-4-0-2-0-2/4-4-xx-2/4-4-0-2-7-0----------|
"you fought me once...."

D-----------------------------------------------0------|
A----------------------------------------------3-3-----|
F---------------------------------------------2-----2--|
C-4/6-6----4/6-6-------4/6-6----4/6-6---4-9-0----------|
G-2/4-4-xx-2/4-4-------2/4-4-xx-2/4-4-0-2-7-0----------|
C-2/4-4-xx-2/4-4-------2/4-4-xx-2/4-4-0-2-7-0----------|
"let me feel your heavy hand..."

D-------------------------------------------0----------|
A-------------------------------------------3----------|
F-------------------------------------------2----------|
C-4/6-6----4/6-6-------4/6-6----4/6-6---4-9-0----------|
G-2/4-4-xx-2/4-4-------2/4-4-xx-2/4-4-0-2-7-0----------|
C-2/4-4-xx-2/4-4-------2/4-4-xx-2/4-4-0-2-7-0----------|
"i will clean your..."

D---------------------------------------------0--------|
A---------------------------------------------3--------|
F---------------------------------------------2--------|
C-4/6-6----7\6-6----4/6-6----4\6-6----6---4-9-0--------|
G-2/4-4-xx-5\4-4-xx-2/4-4-xx-2\4-4-xx-4-0-2-7-0--------|
C-2/4-4-xx-5\4-4-xx-2/4-4-xx-2\4-4-xx-4-0-2-7-0--------|

Aaron
D------------------------------------------------------|
A------------------------------------------------------|
F-13/14-1414----16\14-1414----13/14-1414----13/14-1414-|
C-x-/x--x-x-----x-\x--x-x-----x-/x--x-x-----x-/x--x-x--|
G-11/12-1212-xx-14\12-1212-xx-11/12-1212-xx-11/12-1212-|
C------------xx------------xx------------xx------------|
"and leave no trace..."

Pre-Chorus

D---0---0---0----0---0---0---0---0---0---0---0---0-|
A-----0---0--------0---0-------0---0-------0---0---|
F--------------6-----------------------6-----------|
C-7------------6-----------7-----------6-----------|
G-7------------4-----------7-----------4-----------|
C-7------------------------7-----------------------|

D---0---0---0---0---0---0---0---0---0---0---0---0--|
A---0---0---0---0---0---0---0---0---0---0---0---0--|
F-------------6---6---6---------------6---6---6----|
C-7---7---7---6---6---6---7---7---7---6---6---6----|
G-7---7---7---4---4---4---7---7---7---4---4---4----|
C-7---7---7---------------7---7---7----------------|
note: I can't tell for sure which version of these two
is actually being played, it could be either or both,
so either one will work

Chorus

D--------------------------------------------------|
A--------------------------------------------------|
F-77777777------------77777777---------------------|
C-77777777------------77777777---------------------|
G-55555555-7777-2--2--55555555-7777-2--2-----------|
C----------7777-2--2-----------7777-2--2-----------|

D--------------------------------------------------|
A--------------------------------------------------|
F-77777777------------77777777---------------------|
C-77777777------------77777777---------------------|
G-55555555-7777-2--2--55555555-7777-2--2-----------|
C----------7777-2--2-----------7777-2--2-----------|
                                   "break my fall..."

Lead during chorus

D--------------------------------------------------|
A--------------------------------------------------|
F-11-----9----13----14----16----18-----------------|
C-x------x----x-----x-----x-----x------------------|
G-9------7----11----12----14----16-----------------|
C--------------------------------------------------|
  ^16x   ^8x  ^8x   ^12x  ^4x   ^8x

Verse

Pre-Chorus

Chorus

immediately following chorus:
D--------------------------------------------------|
A--------------------------------------------------|
F--------------------------------------------------|
C-55555555-0---------------------------------------|
G-55555555-0---------------------------------------|
C-55555555-0---------------------------------------|
"break my fall......."

Break

Guitar 1 (clean with heavy phaser)
D-----0--------0-----------0-------0---------------|
A-----5--------5-----------5-------5---------------|
F---6--------6---6-------6-------6---6-------------|
C-7--------7-------7---7-------7-------7-----------|
G--------------------------------------------------|
C--------------------------------------------------|
repeat once

Guitar 2 (slight distortion with delay, slowly raising and lowering volume)
D--------------------------------------------------|
A-------------------------------10---9---7---------|
F-9-----11-----7----6-----9-----9----9---9---------|
C--------------------------------------------------|
G--------------------------------------------------|
C--------------------------------------------------|

Clean and palm muted
D--------------------------------------------------|
A--------------------------------------------------|
F--------------------------------------------------|
C-2-2-2-2-2-2-2-22-6-6-6-6-6-6-6-6-----------------|
G-0-0-0-0-0-0-0-00-4-4-4-4-4-4-4-4-----------------|
C--------------------------------------------------|

D--------------------------------------------------|
A--------------------------------------------------|
F--------------------------------------------------|
C--------------------------------------------------|
G-xx-x---------------------------------------------|
C-xx-x---------------------------------------------|
play this part distorted

Pre-Chorus

Chorus

D--------------------------------------------------|
A--------------------------------------------------|
F--------------------------------------------------|
C-4/6-6----4/6-6---4---4/6-6----4/6-7-7------------|
G-2/4-4-xx-2/4-4-0-2-0-2/4-4-xx-2/4-5-5------------|
C-2/4-4-xx-2/4-4-0-2-0-2/4-4-xx-2/4-5-5------------|
                                   "break my..."

D--------------------------------------------------|
A--------------------------------------------------|
F--------------------------------------------------|
C-4/6-6----4/6-6---4---4/6-6----4/6-0-7------------|
G-2/4-4-xx-2/4-4-0-2-0-2/4-4-xx-2/4-0-7------------|
C-2/4-4-xx-2/4-4-0-2-0-2/4-4-xx-2/4-0-7------------|
                                   "break my..."

D--------------------------------------------------|
A--------------------------------------------------|
F--------------------------------------------------|
C-4/6-6----4/6-6---4---4/6-6----4/6-7-7------------|
G-2/4-4-xx-2/4-4-0-2-0-2/4-4-xx-2/4-5-5------------|
C-2/4-4-xx-2/4-4-0-2-0-2/4-4-xx-2/4-5-5------------|
                                   "break my..."

D--------------------------------------------------|
A--------------------------------------------------|
F--------------------------------------------------|
C-4/6-6----4/6-6---4---4/6-6----4/6-6---4-9-0------|
G-2/4-4-xx-2/4-4-0-2-0-2/4-4-xx-2/4-4-0-2-7-0------|
C-2/4-4-xx-2/4-4-0-2-0-2/4-4-xx-2/4-4-0-2-7-0------|



6. Forget It

*=Harmonics
Drop "D" tuning
Im giving you all the basic chord structures. I don't really feel like doing the timing,
but it's easy enough for you guys (or gals) to figure it out. If anyone feels like
emailing me for questions or threats or something my email is josephrm87@yahoo.com


Repeat this throughout most of the intro (untill he says "But my mind...")       
e--------I
b--------I
G-*12----I
D----*12-I
A--------I
D--------I

e------I-----------------------------------------------------I
b------I-----------------------------------------------------I
G------I-------5---------------6---------------6-------------I
D-1--5-I-1--5--5--6------2--6--6--7------2--6--6--7----------I
A-1--5-I-1--5--3--6------2--6--4--7------2--6--4--7----------I
D-1--5-I-1--5-----6------2--6-----7------2--6-----7----------I
         Its a Crime...  Evertime...     How Can I Believe...

e-------------I
b-------------I
G-------6-----I
D-2--6--6--7--I
A-2--6--4--7--I
D-2--6-----7--I
  Forget It... 

e------------------I
b------------------I
G-------7----------I
D-3--7--7--8-------I
A-3--7--5--8-------I
D-3--7-----8-------I
  There's a place...

e------------------I
b------------------I
G-------8----------I
D-4--8--8--9-------I
A-4--8--6--9-------I
D-4--8-----9-------I
 Just stay away...

e----------------I
b----------------I
G-------9--------I
D-5--9--9--10----I
A-5--9--7--10----I
E-5--9-----10----I
  Its a crime...

e-------------------I  
b-------------------I
G--------10---------I
D--6--10-10--11-----I
A--6--10--8--11-----I
E--6--10-----11-----I
This riff is played through the rest of the song

This is played over the last riff..   End on..
e-11--11--11--11--13--13--13--13-----I--11--I
b---11--11--11--11--11--11--11--11---I--11--I
G------------------------------------I------I
D------------------------------------I------I
A------------------------------------I------I
D------------------------------------I------I




7. Sooner or Later


Tuning:  CGCFAD (down 1 step)
Acoustic Tuning: CFBbEbGC (down 2 steps)  
Now Fully correct!!!

Guitar 1 - Fink
Guitar 2 - Burnley
Guitar 3 - Unknown (only used in INTRO)

Alright, this tab would have been for real nearly IMPOSSIBLE to figure out without the
book!!  The lead guitar was tab to try to tab even with the freakin' book!!! Based Hal
and Leonard's tab book, this song really has 5 guitars in the recorded version but I'm
going to minimize it to 2 guitars EXCEPT for the INTRO!!! Some things have been changed
to fit my tastes for the song!  

This song just hit #1 on the Rock Radio Charts!!!!  A very popular song from a rising
band.  Check out their AOL videos!!!!

Any more BB requests, just post in the comments section!  Please rate!

INTRO - Part 1
Guitar 2 - Heavy Dist. and Flanger
NOTE: This riff is played 14 times continuously!
D|---------------------|
A|---------------------|
F|---------------------|
C|---------------------|
G|---------------------|
C|0-12-10-0-10-0-10-12-|

Guitar 1 - Heavy Dist.
Comes in after Guitar 1 and plays with the riff above twice!
NOTE: This riff is played 13X continuously!
D|---------------------|
A|---------------------|
F|---------------------|
C|0-12-10-0-10-0-10-12-|  
G|0-12-10-0-10-0-10-12-|
C|0-12-10-0-10-0-10-12-|

Guitar 3 - Dist.
NOTE: Comes in after Guitar 1 plays opening riff 6 times!
This entire riff is played TWICE (2x)
D|-------------------------------------------------------------------------|
A|-------------------------------------------------------------------------|
F|-------------------------------------------------------------------------|
C|0-0-16-0-17-0-17-16~--0-16-0-17-0-17-16~--0-16-0-17-0-17-16~--0-16-0-----|
G|-------------------------------------------------------------------------|
C|-------------------------------------------------------------------------|

Guitar 3 - Continued
  1st Ending     2nd Ending
D|-------------|----------------------------|
A|-------------|----------------------------|
F|-19-19-19-19-|-19-19-19-19----------------|
C|-------------|------------16-(let ring)---|
G|-------------|----------------------------|
C|-------------|----------------------------|

*****One note, Guitar 3 can be played while Guitar 1 takes over for Guitar
2's riff if you only want to the play the song with 2 guitars instead of 3!

VERSE
Guitar 1 - Dist.
  LR
D|---------------------|
A|---------------------|
F|---------------------|
C|---------------------|
G|0--------------------|
C|0--------------------|

Guitar 2 - Clean w/ Chorus and some Delay
                                 I want a normal...............you are an..
D|-----------------------------------------0-------------------------0-----|
A|----3----3----3-----3----2h3p2----3----3------3-----3----2h3p2----3--3---|
F|--2-----2----2----2-----2--------2----2------2-----2----2--------2----2--|
C|0----------------------2-------0-----------------------2-------0---------|
G|------3----1----------0------------3-------1---------0-------------------|
C|----------------3-------------------------------3------------------------|
.................................I learn to love.........integrated.....
D|0----------0-----0----------------0------0-------------------------------|
A|--3-------3----3-----3----------3-----3------3---------3------2h3p2------|
F|---2----2--------2-----2p0-----2--------2-----2p0----2-------2-----------|
C|------------------------------------------------------------2------------|
G|------3----------------------1----------------------------0--------------|
C|--------------------------------------------------3----------------------|

PRE-CHORUS (Guitars do not line up perfectly, but they are close!!)
Guitar 1 - Dist.
The chords in parentheses are held from the strummed chord and then slid!
D|------------------------------------------------------------|
A|------------------------------------------------------------|
F|------------------------------------------------------------|
C|xx--8----(8)s-12----(12)-s10--10--10--10--10--10--10--10s---|
G|xx--8----(8)s-12----(12)-s10--10--10--10--10--10--10--10s---|
C|xx--8----(8)s-12----(12)-s10--10--10--10--10--10--10--10s---|

Guitar 2 - Slight Dist.
D|------------------5-----------3------------------------------|
A|-------6------------------------3----6--------6s3--------3---|
F|----------------------------------5-----5-----------5--------|
C|-------------------------------------------5-----------5-----|
G|-------------------------------------------------------------|
C|-------------------------------------------------------------|

CHORUS
Guitar 1 - Dist.
D|-------------------------------------------------------------------------|
A|-------------------------------------------------------------------------|
F|-------------------------------------------------------------------------|
C|777-777777-77s8-8-8-888888-88s3-3-3-333333-3-3s8-8-8-88s10-1010-1212s-777|
G|333-333333-33s5-5-5-555555-55s0-0-0-000000-0-0s5-5-5-55s8--8-8--1010s-333|
C|333-333333-33s5-5-5-555555-55s0-0-0-000000-0-0s5-5-5-55s8--8-8--1010s-333|

Guitar 1 Continued....
D|-------------------------------------------------------------------------|
A|-------------------------------------------------------------------------|
F|-------------------------------------------------------------------------|
C|-777777-77s101010101010101010-1010s3-3-3-333333-3-3s8-8-8-88s101010s1212-|
G|-333333-33s8-8-8-8-8-8-8-8-8--8-8-s0-0-0-000000-0-0s5-5-5-55s8-8-8-s1010-|
C|-333333-33s8-8-8-8-8-8-8-8-8--8-8-s0-0-0-000000-0-0s5-5-5-55s8-8-8-s1010-|

Guitar 2 - Mostly Clean Tone
NOTE: Guitar 2's notes do not line up with Guitar 1 during the CHORUS.
 .........Sooner............you're...it..............Go ahead.....away...
D|----------------------------------------------------------------------|
A|----------------------------------------------------------------------|
F|---0-0h2----0-0h2---0--0h2----3--2-----0-0h2--0-0h2----2------------0-|
C|3-3------3-3------3---------3-------3--------3-------3---3--0--3--2---|
G|----------------------------------------------------------------------|
C|----------------------------------------------------------------------|

Guitar 2 Continued
...........Driving.................there.....ahead.........life...a--way.
D|----------------------------------------------------------------------|
A|----------------------------------------------------------------------|
F|----0-0h2-----3-2----3-2----3-2-----0-0h2----3-2----2------------2--0-|
C|3-3---------3------3-------3-----3---------3------3---3---0---3-------|
G|----------------------------------------------------------------------|
C|----------------------------------------------------------------------|

INTERLUDE
Guitar 1 - Heavy Dist. and Flanger
D|---------------------|
A|---------------------|
F|---------------------|
C|---------------------|  4X
G|---------------------|
C|0-12-10-0-10-0-10-12-|

Guitar 2 - Dist.
|----------------------|
A|---------------------|
F|---------------------|
C|--12-10---10---10-12-|  4X 
G|0-12-10-0-10-0-10-12-|
C|0-12-10-0-10-0-10-12-|

Guitar 3 - Dist.
D|-------------------------------------------------------------------------|
A|-------------------------------------------------------------------------|
F|-------------------------------------------------------------------------|
C|0-0-16-0-17-0-17-16~--0-16-0-17-0-17-16~--0-16-0-17-0-17-16~--0-16-0-----|
G|-------------------------------------------------------------------------|
C|-------------------------------------------------------------------------|

Guitar 3 - Continued
               LR
D|----------------|
A|----------------|
F|-19-19-19-19----|
C|-------------16-|
G|----------------|
C|----------------|

VERSE

PRE-CHORUS (Guitars do not line up perfectly, but they are close!!)
Guitar 1 - Dist.
The chords in parentheses are held from the strummed chord and then slid!
 .it...just...................your.......burning.............
D|------------------------------------------------------------|
A|------------------------------------------------------------|
F|------------------------------------------------------------|
C|xx--8----(8)s-12----(12)-s10--10--10--10--10--10--10--10s---|
G|xx--8----(8)s-12----(12)-s10--10--10--10--10--10--10--10s---|
C|xx--8----(8)s-12----(12)-s10--10--10--10--10--10--10--10s---|

Guitar 2 - Slight Dist.
  ...Just.......you'll........Your scream...burning through...veins...
D|----------------------5----------3-----------------3-----3--------|
A|----------6---------6--------5------5-----5---5-------5-----5-----|
F|--------5--------------------5--------5-----5---5-----------------|
C|------------------------------------------------------------------|
G|------------------------------------------------------------------|
C|------------------------------------------------------------------|

CHORUS
Guitar 1 - Dist.
D|-------------------------------------------------------------------------|
A|-------------------------------------------------------------------------|
F|-------------------------------------------------------------------------|
C|777-777777-77s8-8-8-888888-88s3-3-3-333333-3-3s8-8-8-88s10-1010-1212s-777|
G|333-333333-33s5-5-5-555555-55s0-0-0-000000-0-0s5-5-5-55s8--8-8--1010s-333|
C|333-333333-33s5-5-5-555555-55s0-0-0-000000-0-0s5-5-5-55s8--8-8--1010s-333|

Guitar 1 Continued....
D|-------------------------------------------------------------------------|
A|-------------------------------------------------------------------------|
F|-------------------------------------------------------------------------|
C|-777777-77s101010101010101010-1010s3-3-3-333333-3-3s8-8-8-88s101010s1212-|
G|-333333-33s8-8-8-8-8-8-8-8-8--8-8-s0-0-0-000000-0-0s5-5-5-55s8-8-8-s1010-|
C|-333333-33s8-8-8-8-8-8-8-8-8--8-8-s0-0-0-000000-0-0s5-5-5-55s8-8-8-s1010-|

Guitar 2 - Mostly Clean Tone
NOTE: Guitar 2's notes do not line up with Guitar 1 during the CHORUS.
 .........Sooner............you're...it..............Go ahead.......away.
D|----------------------------------------------------------------------|
A|-----------------------------------------------------------1----------|
F|---0-0h2----0-0h2---0--0h2----3--2-----0-0h2--0-0h2----2------------0-|
C|3-3------3-3------3---------3-------3--------3-------3---3----3--0----|
G|----------------------------------------------------------------------|
C|----------------------------------------------------------------------|

Guitar 2 Continued
.................Driving.......leaving..........there.....my........a--way.
D|-----------------------------------------------------------------------|
A|--------------------------------1--------------------------------------|
F|--0h2----0-0h2----3-2----3-2------2-----0-0h2---0-0h2---2------------0-|
C|------3----------3-----3------3------3--------3-------3---3--0-3---2---|
G|-----------------------------------------------------------------------|
C|-----------------------------------------------------------------------|

INTERLUDE 
Guitar 1 - Dist.
D|-------------------------------------------------------------------------|
A|-------------------------------------------------------------------------|
F|-------10------9------9-------------9-------7-------------5---------3-s>-|
C|12-------------10-------------------8----------------------------5--5-s>-|
G|-------------------------------------------------------------------------|
C|-------------------------------------------------------------------------|
Guitar 2 - Dist.
D|-------------------------------------------------------------------------|
A|-------------------------------------------------------------------------|
F|-------------------------------------------------------------------------|
C|-------------------------------------------------------------------------|
G|-------------------------------------------------------------------------|
C|10-12--12---0-10-12---12---0-10-12---0-10-12---12---0-10-12--12---0-8-8--|
  .  .   .    . .  .    .    . .  .    . .  .    .    . .  .   .    . . .

Guitar 1 - Dist.
D|-------------------------------------------------------------------------|
A|-------------------------------------------------------------------------|
F|s10----10------------9------------(9)----------7-------------9h7-----7-s9|
C|s12------------10----------------------8--------------8-----------8--8-s10
G|-------------------------------------------------------------------------|
C|-------------------------------------------------------------------------|
Guitar 2 - Dist.
D|-------------------------------------------------------------------------|
A|-------------------------------------------------------------------------|
F|-------------------------------------------------------------------------|
C|-------------------------------------------------------------------------|
G|-------------------------------------------------------------------------|
C|10-12--12---0-10-12---12---0-10-12---0-10-12---12---0-10-12--12---0-8-8--|
  .  .   .    . .  .    .    . .  .    . .  .    .    . .  .   .    . . .


Guitar 1 - Delay and Dist.
D|-------------------------------------------------------------------------|
A|-------------------------------------------------------------------------|
F|--9s10-10-------------9-----------9------------10-----9------9-----9-----|
C|-10s12--------10-------------10--------10s12-------12------10----10--10--|
G|-------------------------------------------------------------------------|
C|-------------------------------------------------------------------------|
Guitar 2 - Dist.
D|-------------------------------------------------------------------------|
A|-------------------------------------------------------------------------|
F|-------------------------------------------------------------------------|
C|-------------------------------------------------------------------------|
G|-------------------------------------------------------------------------|
C|10-12--12---0-10-12---12---0-10-12---0-10-12---12---0-10-12--12---0-8-8--|
  .  .   .    . .  .    .    . .  .    . .  .    .    . .  .   .    . . .

Guitar 1 - Dist., Delay
D|-------------------------------------------------------------------------|
A|-------------------------------------------------------------------------|
F|-9s12--12--------9----10-----10--------10-------10----------9-----9------|
C|10s14---------12----------12------12--------12-------12s10----10-----10--|
G|-------------------------------------------------------------------------|
C|-------------------------------------------------------------------------|

Guitar 2 - Dist.
D|-------------------------------------------------------------------------|
A|-------------------------------------------------------------------------|
F|-------------------------------------------------------------------------|
C|-------------------------------------------------------------------------|
G|-------12-----10h12---12-----10h12-----10h12----------10h12--12-0-8-8-8/-|
C|10-12--12---0-10h12---12---0-10h12---0-10h12---12---0-10h12--12-0-8-8-8/-|
  .  .   Gradual volume swell >>>>>>>>>>>>>>>>>>>>>>>

CHORUS
Guitar 1 (acoustic)   NOTE: Tuning C F Bb Eb G C (low to high)
    ............................and....throw...our...life..a------way
C |3---------3---------3----------------0---0--------3--3----2----2----|
G |3---------3---------3----------------1---1--------3--3----3----3----|
Eb|0---------0---------0--------x-x-----2---2--------0--0----2----2----|
Bb|0--(9X)---2--(9X)---2--(7X)--x-x-----2---2--------2--2----0----0----|
F |2---------3---------2--------x-x-----0---0--------3--3--------------|
C |3-------------------0--------x-x------------------------------------|

Guitar 2 - Dist.
D|---------------------------------------------------------------------|
A|---------------------------------------------------------------------|
F|---------------------------------------------------------------------|
C|--------------------------------------8---8--------10-10s--12---12---|
G|--------------------------------------5---5--------8--8-s--10---10---|
C|--------------------------------------5---5--------8--8-s--10---10---|

Guitar 1 - Dist.
D|-----------------------------------------------------------------------|
A|---------------------------3-1-----------------------------------------|
F|---0-0h2--3-2----3-2-------3-2-----0-0h2----3-2-------2------------0---|
C|3-3------3------3--------3-------3--------3---------3---3--0--3--2-----|
G|-----------------------------------------------------------------------|
C|-----------------------------------------------------------------------|

Guitar 2 - Dist.
D|-----------------------------------------------------------------------|
A|-----------------------------------------------------------------------|
F|-----------------------------------------------------------------------|
C|777-777777-77s8-8-8-888888-88s3-3-3-333333-3-3s8-8-8-88s10-1010-12-12--|
G|333-333333-33s5-5-5-555555-55s0-0-0-000000-0-0s5-5-5-55s8--8-8--10-10--|
C|333-333333-33s5-5-5-555555-55s0-0-0-000000-0-0s5-5-5-55s8--8-8--10-10--|

Guitar 1 - Dist.
   HB               HB              HB
D|-------------------------------------------------------------------------|
A|-5(5)-------------5(5)------------5(5)-----------------------5(5)--------|
F|-----5----5-----------5--------------5---------------8(8)-6------5--5----|
C|-------7------7--------7------5h7-----7-5-5h7-5-7-5h7------7-------------|
G|--------------------------8----------------------------------------------|
C|-------------------------------------------------------------------------|

Guitar 2 - Dist.
D|-------------------------------------------------------------------------|
A|-------------------------------------------------------------------------|
F|-------------------------------------------------------------------------|
C|10101010101010101010101010101010s-8-888888-s--3333--2222--s--101010101010|
G|8-8-8-8-8-8-8-8-8-8-8-8-8-8-8-8-s-5-555555-s--3333--3333--s--8-8-8-8-8-8-|
C|8-8-8-8-8-8-8-8-7-7-7-7-7-7-7-7-s-5-555555-s--3333--222s--s--8-8-8-8-8-8-|

Guitar 1 - Dist.
       HB                 HB
D|-------------------------------------------------------------------------|
A|-----5(5)-----------5h7-5(5)-----------------------------------6---------|
F|--5------5--7--5-5h7--------5--7p5-7-5----------------5--5-----5p7-------|
C|7-----------------------------7----7--7p5--7--5-7------7----7------------|
G|-------------------------------------------------------------------------|
C|-------------------------------------------------------------------------|

Guitar 2 - Dist.
D|-------------------------------------------------------------------------|
A|-------------------------------------------------------------------------|
F|----------------------------------------------------------------10-------|
C|1010-10101010101010-10-s-8--8888-8-8-8-s--3-3-3-3--s--10-10-----12-------|
G|8-8--8-8-8-8-8-8-8--8--s-5--5555-5-5-5-s--3-3-3-3--s--7--7------8--------|
C|8-8--7-7-7-7-7-7-7--7--s-5--5555-5-5-5-s--3-3-3-3--s--7--7------8--------|




8. Breakdown


Tuning: Drop D and a half step down (Db Ab Gb Bb Eb)

Intro - Piano transcribed for guitar
Eb-6----6-----------------------------------|
Bb---10---10--------------------------------|
Gb-----------7---9-9---10-10----------------|
Db------------------------------------------|
Ab------------------------------------------|
Db------------------------------------------|

Eb-6----6-----------------------------8-----|
Bb---10---10--------------------------------|
Gb-----------7---9-9---10-10----------------|
Db------------------------------------------|
Ab------------------------------------------|
Db------------------------------------------|

Eb------------------------------------------|
Bb------------------------------------------|
Gb--------------------------------8---------|
Db--------------------------------7---------|
Ab-0-*-0*---------10\9--0-*-0*--0*6---------|
Db-0-*-0*-12p10p0-------0-*-0*--0*----------|

Eb------------------------------------------|
Bb------------------------------------------|
Gb------------------------------8-8---------|
Db------------------------------7-7---------|
Ab-0-*-0*---------10\9--0-*-0*--6-6---------|
Db-0-*-0*-12p10p0-------0-*-0*--------------|

Eb------------------------------------------|
Bb------------------------------------------|
Gb--------------------------------8---------|
Db--------------------------------7---------|
Ab-0-*-0*---------10\9--0-*-0*--0*6---------|
Db-0-*-0*-12p10p0-------0-*-0*--0*----------|

Eb------------------------------------------|
Bb-----------------------------------3------|
Gb------------------------------8-8--2------|
Db------------------------------7-7--0------|
Ab-0-*-0*---------10\9--0-*-0*--6-6--0------|
Db-0-*-0*-12p10p0-------0-*-0*-------0------|

Verse
Eb-6----6---------6----6--------------------|
Bb---10---10--------10---10-----------------|
Gb-----------7--------------7---------------|
Db------------------------------------------|
Ab------------------------------------------|
Db------------------------------------------|

Eb-6----6---------------6-------------------|
Bb---10---10---------10---10----------------|
Gb-----------7-----7---------7--------------|
Db------------------------------------------|
Ab------------------------------------------|
Db------------------------------------------|

Eb-6----6---------6----6--------------------|
Bb---10---10--------10---10-----------------|
Gb-----------7--------------7---------------|
Db------------------------------------------|
Ab------------------------------------------|
Db------------------------------------------|

Eb-----------------------------------------------|
Bb-----------------------------------------------|
Gb-----------------------------------------------|
Db-----------------------------------------------|
Ab-0-0-x-0-0-0-x-0-3-3-x-3-3-3-x-3-8-8-x-8-8-8-x-|
Db-0-0-x-0-0-0-x-0-3-3-x-3-3-3-x-3-8-8-x-8-8-8-x-|
   - -   - - -   - - -   - - -   - - -   - - -

Eb------------------------------------------|
Bb------------------------------------------|
Gb------------------------------------------|
Db------------------------------------------|
Ab-8-5-5-x-5-8-8-x-8------------------------|
Db-8-5-5-x-5-8-8-x-8------------------------|
   - - -   - - -

Eb-----------------------------------------------------------------|
Bb-----------------------------------------------------------------|
Gb-----7-------7-------7-------7-------7-------7-------------------|
Db-----x-------x-------x-------x-------x-------x-------------------|
Ab-0-0-5-0-0-0-5-0-3-3-5-3-3-3-5-3-8-8-5-8-8-8-5-8-5-5-5-5-8-8-8-8-|
Db-0-0---0-0-0---0-3-3---3-3-3---3-8-8---8-8-8---8-5-5-5-5-8-8-8-8-|
   - -   - - -   - - -   - - -   - - -   - - -

Aaron's background lead (clean)
Eb------------------------------------------|
Bb-------6-----------5---------6----------5-|
Gb-----7-----------7---------7----------7---|
Db---7-----------7---------7----------7-----|
Ab-5-----------5---------5----------5-------|
Db------------------------------------------|

Chorus
Eb----------------------------------------------------------|
Bb----------------------------------------------------------|
Gb-----------------2-2-2-2-2-2-2-2--------------------------|
Db-3-3-3-3-3-3-3-3-0-0-0-0-0-0-0-0-13-13-13-13-13-13-13-13--|
Ab-3-3-3-3-3-3-3-3-0-0-0-0-0-0-0-0-11-11-11-11-11-11-11-11--|
Db-3-3-3-3-3-3-3-3-0-0-0-0-0-0-0-0-11-11-11-11-11-11-11-11--|

Eb------------------------------------------|
Bb------------------------------------------|
Gb------------------------------------------|
Db-15-15-15-15------------------------------|
Ab-13-13-13-13-1p0-1h2----------------------|
Db-13-13-13-13-1p0-1h2----------------------|

Eb---------------------------------------------------|
Bb---------------------------------------------------|
Gb-----------------2-2-2-2-2-2-2-2-------------------|
Db-3-3-3-3-3-3-3-3-0-0-0-0-0-0-0-0-13-13-*-13-*-13-*-|
Ab-3-3-3-3-3-3-3-3-0-0-0-0-0-0-0-0-11-11-*-11-*-11-*-|
Db-3-3-3-3-3-3-3-3-0-0-0-0-0-0-0-0-11-11-*-11-*-11-*-|

Eb------------------------------------------|
Bb------------------------------------------|
Gb------------------------------------------|
Db-13-15-15-15-15---------------------------|
Ab-11-13-13-13-13-1p0-1h2-------------------|
Db-11-13-13-13-13-1p0-1h2-------------------|

Eb------------------------------------------|
Bb------------------------------------------|
Gb--------------------------------8---------|
Db--------------------------------7---------|
Ab-0-*-0*---------10\9--0-*-0*--0*6---------|
Db-0-*-0*-12p10p0-------0-*-0*--0*----------|

Eb------------------------------------------|
Bb-----------------------------------3------|
Gb-----------------------------------2------|
Db-----------------------------------0------|
Ab-0-*-0*---------10\9--0-*-0*-------0------|
Db-0-*-0*-12p10p0-------0-*-0*-------0------|

Verse
Eb-----------------------------------------------|
Bb-----------------------------------------------|
Gb-----------------------------------------------|
Db-----------------------------------------------|
Ab-0-0-x-0-0-0-x-0-3-3-x-3-3-3-x-3-8-8-x-8-8-8-x-|
Db-0-0-x-0-0-0-x-0-3-3-x-3-3-3-x-3-8-8-x-8-8-8-x-|
   - -   - - -   - - -   - - -   - - -   - - -

Eb------------------------------------------|
Bb------------------------------------------|
Gb------------------------------------------|
Db------------------------------------------|
Ab-8-5-5-x-5-8-8-x-8------------------------|
Db-8-5-5-x-5-8-8-x-8------------------------|

Eb-----------------------------------------------|
Bb-----------------------------------------------|
Gb-----------------------------------------------|
Db-----------------------------------------------|
Ab-0-0-*-0-0-0-*-0-3-3-*-3-3-3-*-3-8-8-*-8-8-8-*-|
Db-0-0-*-0-0-0-*-0-3-3-*-3-3-3-*-3-8-8-*-8-8-8-*-|

Eb------------------------------------------|
Bb------------------------------------------|
Gb------------------------------------------|
Db------------------------------------------|
Ab-8-5-5-5-5-8-8-8-8------------------------|
Db-8-5-5-5-5-8-8-8-8------------------------|

Chorus

Break
Eb-------------------------------------------|
Bb-------------------------------------------|
Gb-------------------------------------------|
Db-0-----------------------------------------|
Ab-0---------0-0-*-0-0-0-*-0-0-0-*-0-1p0-1h3-|
Db-0---------0-0-*-0-0-0-*-0-0-0-*-0-1p0-1h3-|
             - -   - - -   - - -   -

Eb---------------------------------------------|
Bb---------------------------------------------|
Gb---------------------------------------------|
Db---------------------------------------------|
Ab-0-0-*-0-0-0-*-0-*---0-0-0-1p0-1h3-----------|
Db-0-0-*-0-0-0-*-0-*---0-0-0-1p0-1h3-----------|
   - -   - - -         - - -

Eb-------------------------------------------|
Bb-------------------------------------------|
Gb-------------------------------------------|
Db-------------------------------------------|
Ab-0-0-*-0-0-0-*-0-0-0-*-0-1p0-1h3-----------|
Db-0-0-*-0-0-0-*-0-0-0-*-0-1p0-1h3-----------|
   - -   - - -   - - -   -

Eb---------------------------------------------|
Bb---------------------------------------------|
Gb---------------------------------------------|
Db---------------------------------------------|
Ab-0-0-*-0-0-0-*-0-*---0-0-0-1p0-1h3-----------|
Db-0-0-*-0-0-0-*-0-*---0-0-0-1p0-1h3-----------|
   - -   - - -         - - -

Aaron's lead
Eb--------------------------------------------------------------|
Bb--------------10-10-10-10-13-10-10-13-10-10-13-10-13-10-10-10-|
Gb-7-----5------10-10-10-10-10-10-10-13-10-10-13-10-13-10-10-10-|
Db-x-----x------------------------------------------------------|
Ab-5-----3------------------------------------------------------|
Db--------------------------------------------------------------|
   ^     ^
   play these chords 32x using up and down strumming

Eb------------------------------------------|
Bb-10---------------------------------------|
Gb-9----------------------------------------|
Db------------------------------------------|
Ab------------------------------------------|
Db------------------------------------------|
play this chord 16x and eventually slide up the fretboard on the last time

Chorus (x4)

Eb------------------------------------------|
Bb------------------------------------------|
Gb--------------------------------8---------|
Db--------------------------------7---------|
Ab-0-*-0*---------10\9--0-*-0*--0*6---------|
Db-0-*-0*-12p10p0-------0-*-0*--0*----------|

Eb------------------------------------------|
Bb------------------------------------------|
Gb------------------------------------------|
Db------------------------------------------|
Ab-0-*-0*---------10\9--0-3-7-6-5-3-0-------|
Db-0-*-0*-12p10p0-------0-3-7-6-5-3-0-------|


p = pick off
h = hammer on
- = palm mute
* = pause




9. Away


Tuning: Drop C

Intro

guitar 1
D|---------------------------------------------------------------------------|
A|---------------------------------------------------------------------------|
F|---------------------------------------------------------------------------|
C|--------6-6-6-------6-6-6--3--1-------------------------------3--1---------|
G|---------------------------3--1----------6-6-6--------6-6-6---3--1---------|
C|-3-3-3--------3-3-3--------3--1----3-3-3--------3-3-3---------3--1---------|

D|---------------------------------------------------------------------------|
A|---------------------------------------------------------------------------|
F|---------------------------------------------------------------------------|
C|-----------------------------3--1-----------------------------3--6---------|
G|-------4-4-4---------4-4-4---3--1----------6-6-6-------6-6-6--3--6---------|
C|-3-3-3---------3-3-3---------3--1----3-3-3-------3-3-3--------3--6---------|

guitar 2
w/ wah~
D|---------------------------------------------------------------------------|
A|---------------------------------------------------------------------------|
F|--10~----10b~---------------------------------------------------------------|
C|---------------------------------------------------------------------------|
G|---------------------------------------------------------------------------|
C|---------------------------------------------------------------------------|

After two measures of the verse without guitar, guitar 1 comes in with the
intro riff, palm muting the Eb(the most commonly played chord throughout the intro).

chorus
D|---------------------------------------------------------------------------|
A|---------------------------------------------------------------------------|
F|--6--6-6--6----------------------------------------------------------------|
C|--6--6-6--6---6--6-6---1--1------------------------------------------------|
G|--4--4-4--4---6--6-6---1--1------------------------------------------------|
C|--------------6--6-6---1--1------------------------------------------------|


Sorry, don't know the little bridge right after the second chorus. Anyway,
this is my first tab, and I'm pretty sure its right. Enjoy...


| b  bend
| /  slide up
| \  slide down
| h  hammer-on
| p  pull-off
| ~  vibrato
| +  harmonic
| x  Mute note






10. Believe


Tuning: Guitar 1  Db, Ab, Db, Gb, Bb, Eb 
        Guitar 2  C, G, C, F, A, D
Notation: 
(h) - hammer on 
(p) - pull off  
(b) - bend 
(\\) - slide up
(/) - slide down 
(~) - vibrato 
(P.M.) - palm mute 
(x) - mute 
(*) - harmonic 

Intro     guitar 1 and guitar 2                                   
|-------------------------------------------------------------------------|
|-------------------------------------------------------------------------|
|-------------------------------------------------------------------------|
|--4------------------4--2------------------4--2--------------------------|
|-------------------------------------------------------------------------|
|-----4--2h4-4-4-4-2--------4--2h4-4-4-4-2--------4--2h4-4-4-4-2----------| 

|-------------------------------------------------------------------------|
|-------------------------------------------------------------------------|
|-------------------------------------------------------------------------|
|--4--2-------------------------------------4--2--------------------------|
|-------------------------------------------------------------------------| 
|--------4--2h4-4-4-4-2-----4--2h4-4-4-4-2--------4--2h4-4-4-4-2----------|

|-------------------------------------------------------------------------|
|-------------------------------------------------------------------------|
|-------------------------------------------------------------------------|
|--4--2------------------4--2------------------4--2-----------------------|
|-------------------------------------------------------------------------|
|--------4--2h4-4-4-4-2--------4--2h4-4-4-4-2--------4--2h4-4-4-4-2-------|

Verse     guitar 1
|-------------------------------------------------------------------------|
|-------------------------------------------------------------------------|
|-------------------------------------------------------------------------|
|--2--4---2--2-4---2--2-4---2-2--3-3----2--4---2--2-4---2--2-4---2--3-----|
|--2--4---2--2-4---2--2-4---2-2--3-3----2--4---2--2-4---2--2-4---2--3-----|
|--2--4---2--2-4---2--2-4---2-2--3-3----2--4---2--2-4---2--2-4---2--3-----|
  P.M..   .  . .   .  . .   . .  . .    .  .   .  . .   .  . .

|-------------------------------------------------------------------------|
|-------------------------------------------------------------------------|
|-------------------------------------------------------------------------|
|--2--4---2--2-4---2--2-4---2-2--3-3----2--4---2--2-4---2--2-4---2--3-----|
|--2--4---2--2-4---2--2-4---2-2--3-3----2--4---2--2-4---2--2-4---2--3-----|
|--2--4---2--2-4---2--2-4---2-2--3-3----2--4---2--2-4---2--2-4---2--3-----|

|-------------------------------------------------------------------------|
|-------------------------------------------------------------------------|
|-------------------------------------------------------------------------|
|--2--4---2--2-4---2--2-4---2-2--3-3----2--4---2--2-4---2--2-4---2--3-----|
|--2--4---2--2-4---2--2-4---2-2--3-3----2--4---2--2-4---2--2-4---2--3-----|
|--2--4---2--2-4---2--2-4---2-2--3-3----2--4---2--2-4---2--2-4---2--3-----|

Chorus  2x     guitar 1 and guitar 2 
|-------------------------------------------------------------------------|
|-------------------------------------------------------------------------|
|-------------------------------------------------------------------------|
|--4--2--5--4--2--4--2--4--5--4--7----4--2--5--4--2--4--2--4--7--7--------|
|--4--2--5--4--2--4--2--4--5--4--7----4--2--5--4--2--4--2--4--7--7--------|
|--4--2--5--4--2--4--2--4--5--4--7----4--2--5--4--2--4--2--4--7--7--------|

Verse     guitar 1
|-------------------------------------------------------------------------|
|-------------------------------------------------------------------------|
|-------------------------------------------------------------------------|
|--2--4---2--2-4---2--2-4---2-2--4-2--------------------------------------|
|--2--4---2--2-4---2--2-4---2-2------4p3p2--------------------------------|
|--2--4---2--2-4---2--2-4---2-2------------5p4----------------------------|
  P.M..   .  . .   .  . .   . .

|-------------------------------------------------------------------------|
|-------------------------------------------------------------------------|       
|-------------------------------------------------------------------------|
|--2--4---2--2-4---2--2-4---2-2--3-3----2--4---2--2-4---2--2-4---2--3-----|
|--2--4---2--2-4---2--2-4---2-2--3-3----2--4---2--2-4---2--2-4---2--3-----|
|--2--4---2--2-4---2--2-4---2-2--3-3----2--4---2--2-4---2--2-4---2--3-----|
  P.M..   .  . .   .  . .   . .  . .    .  .   .  . .   .  . .

|-------------------------------------------------------------------------|
|-------------------------------------------------------------------------| 
|-------------------------------------------------------------------------|
|--2--4---2--2-4---2--2-4---2-2--3-3----2--4---2--2-4---2--2-4---2--3-----|
|--2--4---2--2-4---2--2-4---2-2--3-3----2--4---2--2-4---2--2-4---2--3-----|
|--2--4---2--2-4---2--2-4---2-2--3-3----2--4---2--2-4---2--2-4---2--3-----|

|-------------------------------------------------------------------------|
|-------------------------------------------------------------------------| 
|-------------------------------------------------------------------------|
|--2--4---2--2-4---2--2-4---2-2--3-3----2--4---2--2-4---2--2-4---2--3-----|
|--2--4---2--2-4---2--2-4---2-2--3-3----2--4---2--2-4---2--2-4---2--3-----|
|--2--4---2--2-4---2--2-4---2-2--3-3----2--4---2--2-4---2--2-4---2--3-----|

Chorus  2x     guitar 1 and guitar 2 
|-------------------------------------------------------------------------|
|-------------------------------------------------------------------------|
|-------------------------------------------------------------------------|
|--4--2--5--4--2--4--2--4--5--4--7----4--2--5--4--2--4--2--4--7--7--------|
|--4--2--5--4--2--4--2--4--5--4--7----4--2--5--4--2--4--2--4--7--7--------|
|--4--2--5--4--2--4--2--4--5--4--7----4--2--5--4--2--4--2--4--7--7--------|  

Bridge (with effects)  4x     guitar 1 and guitar 2 
|-------------------------------------------------------------------------|
|-------------------------------------------------------------------------|
|-------------------------------------------------------------------------|
|--2----4----5----7-------------------------------------------------------|
|--2----4----5----7-------------------------------------------------------|
|--2----4----5----7-------------------------------------------------------| 

Interlude  2x 
|-------------------------------------------------------------------------|
|-------------------------------------------------------------------------|
|-------------------------------------------------------------------------|
|-------------------------------------------------------------------------|
|--4--2--5--4--2--4--2--4--5--4--7----4--2--5--4--2--4--2--4--7--7--------|
|--4--2--5--4--2--4--2--4--5--4--7----4--2--5--4--2--4--2--4--7--7--------| 
 P.M. .  .  .  .  .  .  .  .  .  .    .  .  .  .  .  .  .  .  .  .  

Chorus  2x     guitar 1 and guitar 2 
|-------------------------------------------------------------------------|
|-------------------------------------------------------------------------|
|-------------------------------------------------------------------------|
|--4--2--5--4--2--4--2--4--5--4--7----4--2--5--4--2--4--2--4--7--7--------|
|--4--2--5--4--2--4--2--4--5--4--7----4--2--5--4--2--4--2--4--7--7--------|
|--4--2--5--4--2--4--2--4--5--4--7----4--2--5--4--2--4--2--4--7--7--------|  

Chorus  2x    guitar 2  plays the chorus again when guitar 1 does the bends
|-------------------------------------------------------------------------|
|-------------------------------------------------------------------------|
|-------------------------------------------------------------------------|
|--4--2--5--4--2--4--2--4--5--4--7----4--2--5--4--2--4--2--4--7--7--------|
|--4--2--5--4--2--4--2--4--5--4--7----4--2--5--4--2--4--2--4--7--7--------|
|--4--2--5--4--2--4--2--4--5--4--7----4--2--5--4--2--4--2--4--7--7--------|  

Outro     guitar 1  
|--15b---------15b---------16b---------12b-12b-12b-12b-12b-12b---12b--12b-|
|--15b---------15b---------16b---------15b-16b-15b-16b-15b-16b---15b--16b-|
|-------------------------------------------------------------------------|
|-------------------------------------------------------------------------|
|-------------------------------------------------------------------------|
|-------------------------------------------------------------------------| 

Intro     guitar 1 and guitar 2
|-------------------------------------------------------------------------|
|-------------------------------------------------------------------------|
|-------------------------------------------------------------------------|
|--4------------------4--2------------------4--2--------------------------|
|-------------------------------------------------------------------------|
|-----4--2h4-4-4-4-2--------4--2h4-4-4-4-2--------4--2h4-4-4-4-2----------| 

Ending     guitar 1 and guitar 2 
|-------------------------------------------------------------------------|
|-------------------------------------------------------------------------|
|-------------------------------------------------------------------------|
|--4----2----4------------------------------------------------------------|
|--4----2----4------------------------------------------------------------|
|--4----2----4------------------------------------------------------------|






11. Rain


Tuning: Drop C  CGCFAD

There are actually 2 guitars but I'm only doing what Ben would play live when he plays
this song alone!!  If you want the other guitar (which is quite difficult), then buy
the book - it's incredible!  Please rate!

NOTE: the notes in parenthesis ARE meant to be played, however, the song also sounds
pretty good without them!  So, if you want to "easy" version,don't play the notes in
parenthesis - if you want to play it the "real" way, then play all the notes! Credit
again to "Hal and Leonard!" As usual, I've changed a few things here and there!  100%
correct!

Guitar 1 - Benjamin Burnley 
Acoustic Throughout

INTRO
D|----------------------|------------------------|
A|----------------------|------------------------|
F|7--7-7-7-7--7-7-7-7-7-|-7--7-7-7-7--7-7-7-7-7--|
C|4--4-4-4-4--4-4-4-4-4-|-4--4-4-4-4--7-7-7-7-7--|
G|0--0-0-0-0--x-x-x-x-x-|-0--0-0-0-0--5-5-5-5-5--|
C|0--0-0-0-0--5-5-5-5-5-|-0--0-0-0-0--5-5-5-5-5--|

D|-------------------------------|--------------------------------|
A|-------------------------------|--------------------------------|
F|7--7-7-7-7-(11)(11)(11)(11)(11)|-(9)-(9)(9)(9)(9)--7-7-7-7-7----|
C|4--4-4-4-4--12--12--12--12--12-|--11--11-11-11-11--7-7-7-7-7----|
G|0--0-0-0-0--9---9---9---9---9--|--7---7--7--7--7---5-5-5-5-5----|
C|0--0-0-0-0--9---9---9---9---9--|--7---7--7--7--7---5-5-5-5-5----|

VERSE  2X
D|---------------------|-----------------------|
A|---------------------|-----------------------|
F|7-7-7-7-7--7-7-7-7-7-|-7-7-7-7-7--7-7-7-7-7--|
C|4-4-4-4-4--4-4-4-4-4-|-4-4-4-4-4--7-7-7-7-7--|
G|0-0-0-0-0--x-x-x-x-x-|-0-0-0-0-0--5-5-5-5-5--|
C|0-0-0-0-0--5-5-5-5-5-|-0-0-0-0-0--5-5-5-5-5--|

D|-------------------------------|-------------------------------|
A|-------------------------------|-------------------------------|
F|7--7-7-7-7-(11)(11)(11)(11)(11)|-(9)(9)(9)(9)(9)--7-7-7-7-7----|
C|4--4-4-4-4--12--12-12---12--12-|--11-11-11-11-11--7-7-7-7-7----|
G|0--0-0-0-0--9---9--9----9---9--|--7--7--7--7--7---5-5-5-5-5----|
C|0--0-0-0-0--9---9--9----9---9--|--7--7--7--7--7---5-5-5-5-5----|

CHORUS - Here if you dont want to play the "4's," then just mute the
         string, but still play the open notes on the 2 top strings!
D|-------------0--0--0--0--0--------------------------------|
A|3--3-3-3-3---0--0--0--0--0---7---7--7-7-7-7-7---7-7-7-7---|
F|2--2-2-2-2--(4)(4)(4)(4)(4)--7---7--7-7-7-7-7---7-7-7-7---|
C|0--0-0-0-0---5--5--5--5--5---5---5--5-5-5-5-5---5-5-5-5---|
G|0--0-0-0-0---2--2--2--2--2---5---5--5-5-5-5-5---5-5-5-5---|
C|0--0-0-0-0---2--2--2--2--2---5---5--5-5-5-5-5---5-5-5-5---|

D|-------------0--0-0-0-0--0--------------------------------|
A|3--3-3-3-3---0--0-0-0-0--0---7---7--7-7-7-7-7---7-7-7-7---|
F|2--2-2-2-2--(4)(4)(4)(4)(4)--7---7--7-7-7-7-7---7-7-7-7---|
C|0--0-0-0-0---5--5--5--5--5---5---5--5-5-5-5-5---5-5-5-5---|
G|0--0-0-0-0---2--2--2--2--2---5---5--5-5-5-5-5---5-5-5-5---|
C|0--0-0-0-0---2--2--2--2--2---5---5--5-5-5-5-5---5-5-5-5---|

VERSE  2X

CHORUS 2X

BRIDGE
D|--------------------------------------------------------------------|
A|--------------------------------------------------------------------|
F|(11)-(11)(11)(11)(11)-7-7---7--7-7-(6)---(6)(6)(6)(6)-7-7---7--7-7--|
C|-12---12--12--12--12--7-7---7--7-7--7-----7--7--7--7--7-7---7--7-7--|
G|-9----9---9---9---9---5-5---5--5-5--4-----4--4--4--4--5-5---5--5-5--|
C|-9----9---9---9---9---5-5---5--5-5--4-----4--4--4--4--5-5---5--5-5--|

D|--------------------------------------------------------------------|
A|--------------------------------------------------------------------|
F|(11)-(11)(11)(11)(11)-7-7---7--7-7---9---9--9-9-9--7-7--7-7-7-7-----|
C|-12---12--12--12--12--7-7---7--7-7---7---7--7-7-7--5-5--5-5-5-5-----|
G|-9----9---9---9---9---5-5---5--5-5---7---7--7-7-7--5-5--5-5-5-5-----|
C|-9----9---9---9---9---5-5---5--5-5---7---7--7-7-7--5-5--5-5-5-5-----|

D|--------------------------------------------------------------------|
A|--------------------------------------------------------------------|
F|(11)-(11)(11)(11)(11)-7-7---7--7-7-(6)---(6)(6)(6)(6)-7-7---7--7-7--|
C|-12---12--12--12--12--7-7---7--7-7--7-----7--7--7--7--7-7---7--7-7--|
G|-9----9---9---9---9---5-5---5--5-5--4-----4--4--4--4--5-5---5--5-5--|
C|-9----9---9---9---9---5-5---5--5-5--4-----4--4--4--4--5-5---5--5-5--|

D|--------------------------------------------------------------------|
A|--------------------------------------------------------------------|
F|(11)-(11)(11)(11)(11)-7-7---7--7-7---9---9--9-9-9-9-9-9-9-9-9-9-----|
C|-12---12--12--12--12--7-7---7--7-7---7---7--7-7-7-7-7-7-7-7-7-7-----|
G|-9----9---9---9---9---5-5---5--5-5---7---7--7-7-7-7-7-7-7-7-7-7-----|
C|-9----9---9---9---9---5-5---5--5-5---7---7--7-7-7-7-7-7-7-7-7-7-----|

OUTRO/CHORUS
D|--------------------------------------------------------|
A|------------7--7---7-7-7-----------------7-7----7-7-7-7-|
F|7--7-7-7-7--7--7---7-7-7--7----7--7-7-7--7-7----7-7-7-7-|
C|7--7-7-7-7--5--5---5-5-5--7----7--7-7-7--5-5----5-5-5-5-|
G|5--5-5-5-5--5--5---5-5-5--5----5--5-5-5--5-5----5-5-5-5-|
C|0--0-0-0-0--5--5---5-5-5--0----0--0-0-0--5-5----5-5-5-5-|

D|-------------------0--0----0--0--0-----------------------------|
A|3------3--3-3--3---0--0----0--0--0---7---7--7-7-7-7-7-7--x-----|
F|2------2--2-2--2--(4)(4)--(4)(4)(4)--7---7--7-7-7-7-7-7--x--9--|
C|0------0--0-0--0---5--5----5--5--5---5---5--5-5-5-5-5-5--x--7--|
G|0------0--0-0--0---2--2----2--2--2---5---5--5-5-5-5-5-5--x--7--|
C|0------0--0-0--0---2--2----2--2--2---5---5--5-5-5-5-5-5--x--7--|

D|--------------------------------------------------------|
A|------------7--7---7-7-7-----------------7-7----7-7-7-7-|
F|7--7-7-7-7--7--7---7-7-7--7----7--7-7-7--7-7----7-7-7-7-|
C|7--7-7-7-7--5--5---5-5-5--7----7--7-7-7--5-5----5-5-5-5-|
G|5--5-5-5-5--5--5---5-5-5--5----5--5-5-5--5-5----5-5-5-5-|
C|0--0-0-0-0--5--5---5-5-5--0----0--0-0-0--5-5----5-5-5-5-|

D|----------------------------------|------------------0--0---0---0--0---|
A|--7---7--7-7-7-7----7--7--7--7--7-|-3----3--3--3--3--0--0---0---0--0---|
F|--7---7--7-7-7-7----7--7--7--7--7-|-2----2--2--2--2-(4)(4)-(4)-(4)(4)--|
C|--5---5--5-5-5-7----5--5--5--5--5-|-0----0--0--0--0--5--5---5---5--5---|
G|--5---5--5-5-5-5----5--5--5--5--5-|-0----0--0--0--0--2--2---2---2--2---|
C|--5---5--5-5-5-5----5--5--5--5--5-|-0----0--0--0--0--2--2---2---2--2---|

D|---------------------------------|-------------------0--0--0--0--0----|
A|-7---7--7-7-7-7----7--7--7--7--7-|-3----3--3--3--3---0--0--0--0--0--7-|
F|-7---7--7-7-7-7----7--7--7--7--7-|-2----2--2--2--2--(4)(4)(4)(4)(4)-7-|
C|-5---5--5-5-5-5----5--5--5--5--5-|-0----0--0--0--0---5--5--5--5--5--5-|
G|-5---5--5-5-5-5----5--5--5--5--5-|-0----0--0--0--0---2--2--2--2--2--5-|
C|-5---5--5-5-5-5----5--5--5--5--5-|-0----0--0--0--0---2--2--2--2--2--5-|

That's all -  such a sweet song!



Thats the whole album and I hope you liked it.Peace out!
8 comments total. Showing first comments.
0 reply
BlinkMM182 wrote on July 21 2005, 12:00 am

if you didnt write any of these...then this really isnt your 1st tab.

0 reply
Phildo64 wrote on August 6 2005, 12:00 am

I think it was his tab for beileve...cuz i didnt see one when i searched...but he might have used it from MX Tabs...but good tab if so...if not...u suck!

-2 reply
I-Z wrote on September 2 2006, 11:26 pm

U shoudn't put all of them in an album if u havn't asked the tabbers if u could u dumb butt

these are good but u didn't write them

I want to post or [tab]
guest
You may want to rate the tab now too:
select rating
Please do not post tabs as comments. Select "correction" instead!