Oops, an error
Loading. Please wait.

Darlin Do Not Fear Tab

ver2
ver2

Whole song

More versions @911Tabs.com
13,478 views 9 this week
no commentswrite comment
1 2 3 4 5
excellent!
x 2
Autoscroll
+/-
esc
set tempo
stop
Contributor
Difficulty
intermediate
Hey! There's an official Ultimate Guitar app which is ideal
for learning songs when you're away from computer. Get the app
WARNING: You are trying to view
                                    content from Ultimate-Guitar.com
                                    in an unauthorized application,
                                    which is prohibited.

                                    Please use an official Ultimate
                                    Guitar Tabs application for iPhone,
                                    iPad or Android to access legitimate
                                    chords, guitar, bass, and drum tabs
                                    from Ultimate-Guitar.com database.

                                    Type "ultimate guitar tabs" in Apple
                                    App Store's or Android Market's
                                    search to find the application.
Darlin'  Do Not Fear
Brett Dennen

Tuning:Standard

----Intro----

e|---------8--------------------------------------|
B|----/9-------9---9/11--9-8--8----------8----9---|
G|------------------------------10p8h10-----------|
D|------------------------------------------------|
A|------------------------------------------------|
E|------------------------------------------------|

e|--11--11---9--8-----------------------11------|
B|----------------11--9---8h9p8-----------------|
G|-----------------------------------8----------|
D|-------------------------------10-------------|
A|----------------------------------------------|
E|----------------------------------------------|

e|--9--8-------------------------------|
B|--------11--9--8h9p8-----8--9----9---|
G|----------------------9----(8)---8---|
D|---------------------------------10--|
A|-------------------------------------|
E|-------------------------------------|

(and Fill 1)
e|--11--11---9--8---------------------------------|
B|----------------11--9---8h9p8-------8-------9---|
G|---------------------------------9----(8)---8---|
D|-------------------------------------------(10)-|
A|------------------------------------------------|
E|------------------------------------------------|

CHORDS
    Ab/Fm7             C7
e|--8------------------8-------0----|
B|--9-------1----------8-------1----|
G|--8-------1----------9-------3----|
D|--10--OR--1----------8---OR--2----|
A|--11------3----------10------3----|
E|----------4----------8------------|


---VERSE---

Ab/Fm7                   C7
When I arrived in my old set of clothes
Ab/Fm7                   C7
I was half a world away from my home
       Ab/Fm7                                     
and I was hunted by the wolves
        C7
and I was heckled by the crows
Ab/Fm7                   C7
Darlin' do not fear what you don't really know

(Fill 1)

Alongside my innocence I laid in bed awake
conflicted and in chains with the impetus of age
but like a phantom she crept across the floor and out the window
Darlin' do not fear what you don't really know

(Fill 1)

From its place on the mantel my heart was taken down
scattered in a thousand little pieces on the ground
and I below the streetlamp like an orphan with a halo
Darlin' do not fear what you don't really know

---BREAK---
Ab/Fm7   Ab/Fm7  Eb     Ab/Fm7                   
        cuz it won't last
Ab/Fm7   Ab/Fm7  Eb     Ab/Fm7                   
worries'll pass
Fm7                   C7
all your troubles they don't stand a chance
Ab/Fm7                   C7
and sometimes it takes more than a lifetime to know
Ab/Fm7                   C7
Darlin' do not fear what you don't really know

(Intro)

---VERSE----
(ARPEGGIOS)
Your confidences fall as your faith etched in stone
neither could comfort you from the wild unknown
so bury your burning hatred like a hatchet in the snow
Darlin' do not fear what you don't really know

(Fill 1)

If you have a broken heart or a battered soul
find something to hold onto until they go
to help you through the hard nights
like a flask filled with hope
Darlin' do not fear what you don't really know

---BREAK---

cuz it won't last
your worries'll pass
all your troubles they don't stand a chance
and it always hurts the worst when it's the ones we love the most
Darlin' do not fear what you don't really know

(Intro)

---VERSE----

sometimes your path is marked in the sky
sometimes it falls too thin in between the lines
sometimes all you can do is say no
Darlin' do not fear what you don't really know

I said when I arrived in my old set of clothes
I was half a world away from my home
and I was hunted by the wolves
and I was heckled by the crows
Darlin' do not fear what you don't really know
I said Darlin' do not fear what you don't really know

We said Darlin' do not fear

(Intro)
comments
We did not receive enough feedback on this tab! Please rate:
print report bad tab
1 2 3 4 5
I want to post or [tab]
guest
You may want to rate the tab now too:
select rating
Please do not post tabs as comments. Select "correction" instead!