Oops, an error
Loading. Please wait.

Adonai Tab

ver1
ver1

Whole song

More versions @911Tabs.com
5,537 views 3 this week
no commentswrite comment
1 2 3 4 5
excellent!
x 2
Autoscroll
+/-
esc
set tempo
stop
Contributor
WARNING: You are trying to view
                                    content from Ultimate-Guitar.com
                                    in an unauthorized application,
                                    which is prohibited.

                                    Please use an official Ultimate
                                    Guitar Tabs application for iPhone,
                                    iPad or Android to access legitimate
                                    chords, guitar, bass, and drum tabs
                                    from Ultimate-Guitar.com database.

                                    Type "ultimate guitar tabs" in Apple
                                    App Store's or Android Market's
                                    search to find the application.
Brian Head Welch
Adonai
Tabbed by U B the band
Tuning B E A D F# B

Legend
/-slide up

Intro: Guitar 1 (Distorted)
 B|---------------------------------------------------------------------------|
F#|---------------------------------------------------------------------------|
 D|--6---6---6---6-----2---2---2---2-----------------------4---4-----5---5----|
 A|--6---6---6---6-----2---2---2---2-----2---2---2---2-----4---4-----5---5----|
 E|--4---4---4---4-----0---0---0---0-----2---2---2---2-----2---2-----3---3----|
 B|--------------------------------------0---0---0---0------------------------|
                                                                              |
Intro: Guitar 2 (Distorted)                                                   |
 B|---------------------------------------------------------------------------|
F#|--14----------------------------------------------------12--13----14-------|
 D|----------------------------14--------13-----------------------------------|
 A|--------------------14-----------------------------------------------------|
 E|---------------------------------------------------------------------------|
 B|---------------------------------------------------------------------------|

Intro: Guitar 1 (Distorted)
 B|---------------------------------------------------------------------------|
F#|---------------------------------------------------------------------------|
 D|--6---6---6---6-----2---2---2---2------------------------------------------|
 A|--6---6---6---6-----2---2---2---2-----2---2---2---2-----6---6---6---6------|
 E|--4---4---4---4-----0---0---0---0-----2---2---2---2-----6---6---6---6------|
 B|--------------------------------------0---0---0---0-----4---4---4---4------|
                                                                              |
Intro: Guitar 2 (Distorted)                                                   |
 B|----------------------------------------------------------------11--14-----|
F#|--14----------------------------------------------------13--14-------------|
 D|----------------------------14--------13-----------------------------------|
 A|-------------------14------------------------------------------------------|
 E|---------------------------------------------------------------------------|
 B|---------------------------------------------------------------------------|

Intro: Guitar 1 (Distorted)
 B|---------------------------------------------------------------------------|
F#|---------------------------------------------------------------------------|
 D|--6---6---6---6-----2---2---2---2-----------------------4---4-----5---5----|
 A|--6---6---6---6-----2---2---2---2-----2---2---2---2-----4---4-----5---5----|
 E|--4---4---4---4-----0---0---0---0-----2---2---2---2-----2---2-----3---3----|
 B|--------------------------------------0---0---0---0------------------------|
                                                                              |
Intro: Guitar 2 (Distorted and palm mute the 0's)                             |
 B|--14------16--------12------14--17----16------14--------12--14----11-------|
F#|------0-------0---------0-----------------0-------0------------------------|
 D|---------------------------------------------------------------------------|
 A|---------------------------------------------------------------------------|
 E|---------------------------------------------------------------------------|
 B|---------------------------------------------------------------------------|

Intro: Guitar 1 (Distorted)
 B|---------------------------------------------------------------------------|
F#|---------------------------------------------------------------------------|
 D|--6---6---6---6-----2---2---2---2------------------------------------------|
 A|--6---6---6---6-----2---2---2---2-----2---2---2---2-----6---6---6---6------|
 E|--4---4---4---4-----0---0---0---0-----2---2---2---2-----6---6---6---6------|
 B|--------------------------------------0---0---0---0-----4---4---4---4------|
                                                                              |
Intro: Guitar 2 (Distorted and palm mute the 0's)                             |
 B|--14------16--------12------14--17----16------14---------------------------|
F#|------0-------0---------0-----------------0-------0-----16--14--13---------|
 D|--------------------------------------------------------------------14-----|
 A|---------------------------------------------------------------------------|
 E|---------------------------------------------------------------------------|
 B|---------------------------------------------------------------------------|

Verse 1: Guitar 1 (Distorted) PLAY ENTIRE VERSE 2 TIMES
 B|---------------------------------------------------------------------------|
F#|---------------------------------------------------------------------------|
 D|---------------------------------------------------------------------------|
 A|--6---6------------------------------6---6------------4-----2--------------|
 E|--6---6------------------------------6---6------------4-----2--------------|
 B|--4---4-----0h2p0---5p0---4---0------4---4------------2-----0--------------|
                                                                              |
Verse 1: Guitar 2 (Distorted)                                                 |
 B|--------------------------5---------------------------------5--------------|
F#|--------------------------6---------------------------------6--------------|
 D|---------------------------------------------------------------------------|
 A|---------------------------------------------------------------------------|
 E|---------------------------------------------------------------------------|
 B|---------------------------------------------------------------------------|
                                                                              |
Verse 1: Guitar 3 (Distorted)                                                 |
 B|-------19b(21)----------------------------19b(21)--------------------------|
F#|---------------------------------------------------------------------------|
 D|---------------------------------------------------------------------------|
 A|---------------------------------------------------------------------------|
 E|---------------------------------------------------------------------------|
 B|---------------------------------------------------------------------------|

Verse 1: Guitar 1 (Distorted)
 B|---------------------------------------------------------------------------|
F#|---------------------------------------------------------------------------|
 D|---------------------------------------------------------------------------|
 A|--6---6------------------------------6---6------------4---/-5--------------|
 E|--6---6------------------------------6---6------------4---/-7--------------|
 B|--4---4-----0h2p0---5p0---4---0------4---4------------2---/-5--------------|
                                                                              |
Verse 1: Guitar 2 (Distorted)                                                 |
 B|--------------------------5---------------------------------5--------------|
F#|--------------------------6---------------------------------6--------------|
 D|---------------------------------------------------------------------------|
 A|---------------------------------------------------------------------------|
 E|---------------------------------------------------------------------------|
 B|---------------------------------------------------------------------------|
                                                                              |
Verse 1: Guitar 3 (Distorted)                                                 |
 B|-------19b(21)----------------------------19b(21)--------------------------|
F#|---------------------------------------------------------------------------|
 D|---------------------------------------------------------------------------|
 A|---------------------------------------------------------------------------|
 E|---------------------------------------------------------------------------|
 B|---------------------------------------------------------------------------|

Pre Chorus: Guitar 1 (Distorted) PLAY ENTIRE PRE CHORUS 2 TIMES
 B|---------------------------------------------------------------------------|
F#|---------------------------------------------------------------------------|
 D|---------------------------------------------------------------------------|
 A|--6---6------------------------------6---6------------4-----2--------------|
 E|--6---6------------------------------6---6------------4-----2--------------|
 B|--4---4-----0h2p0---5p0---4---0------4---4------------2-----0--------------|
                                                                              |
Pre Chorus: Guitar 2 (Distorted)                                              |
 B|--21---------20----------------------16------------------------------------|
F#|------------------------------------------------------------19-------------|
 D|---------------------------------------------------------------------------|
 A|---------------------------------------------------------------------------|
 E|---------------------------------------------------------------------------|
 B|---------------------------------------------------------------------------|
                                                                              |
Pre Chorus: Guitar 3 (Distorted)                                              |
 B|-------19b(21)----------------------------19b(21)--------------------------|
F#|---------------------------------------------------------------------------|
 D|---------------------------------------------------------------------------|
 A|---------------------------------------------------------------------------|
 E|---------------------------------------------------------------------------|
 B|---------------------------------------------------------------------------|

Pre Chorus: Guitar 1 (Distorted)
 B|---------------------------------------------------------------------------|
F#|---------------------------------------------------------------------------|
 D|---------------------------------------------------------------------------|
 A|--6---6------------------------------6---6------------4---/-7--------------|
 E|--6---6------------------------------6---6------------4---/-7--------------|
 B|--4---4-----0h2p0---5p0---4---0------4---4------------2---/-5--------------|
                                                                              |
Pre Chorus: Guitar 2 (Distorted)          Don’t play the (17) on the 2nd time |
 B|--21---------20----------------------16-----------------|--(17)------------|
F#|--------------------------------------------------------|------------------|
 D|--------------------------------------------------------|------------------|
 A|--------------------------------------------------------|------------------|
 E|--------------------------------------------------------|------------------|
 B|--------------------------------------------------------|------------------|
                                                                              |
Pre Chorus: Guitar 3 (Distorted)                                              |
 B|-------19b(21)----------------------------19b(21)--------------------------|
F#|---------------------------------------------------------------------------|
 D|---------------------------------------------------------------------------|
 A|---------------------------------------------------------------------------|
 E|---------------------------------------------------------------------------|
 B|---------------------------------------------------------------------------|

Chorus: Guitar 1 (Distorted)
 B|---------------------------------------------------------------------------|
F#|---------------------------------------------------------------------------|
 D|--6---6---6---6-----2---2---2---2-----------------------4---4-----5---5----|
 A|--6---6---6---6-----2---2---2---2-----2---2---2---2-----4---4-----5---5----|
 E|--4---4---4---4-----0---0---0---0-----2---2---2---2-----2---2-----3---3----|
 B|--------------------------------------0---0---0---0------------------------|
                                                                              |
Chorus: Guitar 2 (Distorted)                                                  |
 B|---------------------------------------------------------------------------|
F#|--14----------------------------------------------------12--------14-------|
 D|----------------------------14--------13-----------------------------------|
 A|--------------------14-----------------------------------------------------|
 E|---------------------------------------------------------------------------|
 B|---------------------------------------------------------------------------|

Chorus: Guitar 1 (Distorted)
 B|---------------------------------------------------------------------------|
F#|---------------------------------------------------------------------------|
 D|--6---6---6---6-----2---2---2---2------------------------------------------|
 A|--6---6---6---6-----2---2---2---2-----2---2---2---2-----6---6---6---6------|
 E|--4---4---4---4-----0---0---0---0-----2---2---2---2-----6---6---6---6------|
 B|--------------------------------------0---0---0---0-----4---4---4---4------|
                                                                              |
Chorus: Guitar 2 (Distorted)                                                  |
 B|----------------------------------------------------------------11---------|
F#|--14----------------------------------------------------13--14-------------|
 D|----------------------------14--------13-----------------------------------|
 A|-------------------14------------------------------------------------------|
 E|---------------------------------------------------------------------------|
 B|---------------------------------------------------------------------------|

Verse 2: Guitar 1 (Distorted) PLAY ENTIRE VERSE 2 TIMES
 B|---------------------------------------------------------------------------|
F#|---------------------------------------------------------------------------|
 D|---------------------------------------------------------------------------|
 A|--6---6------------------------------6---6------------4-----2--------------|
 E|--6---6------------------------------6---6------------4-----2--------------|
 B|--4---4-----0h2p0---5p0---4---0------4---4------------2-----0--------------|
                                                                              |
Verse 2: Guitar 2 (Distorted)                                                 |
 B|--------------------------5---------------------------------5--------------|
F#|--------------------------6---------------------------------6--------------|
 D|---------------------------------------------------------------------------|
 A|---------------------------------------------------------------------------|
 E|---------------------------------------------------------------------------|
 B|---------------------------------------------------------------------------|
                                                                              |
Verse 2: Guitar 3 (Distorted)                                                 |
 B|-------19b(21)----------------------------19b(21)--------------------------|
F#|---------------------------------------------------------------------------|
 D|---------------------------------------------------------------------------|
 A|---------------------------------------------------------------------------|
 E|---------------------------------------------------------------------------|
 B|---------------------------------------------------------------------------|

Verse 2: Guitar 1 (Distorted)
 B|---------------------------------------------------------------------------|
F#|---------------------------------------------------------------------------|
 D|---------------------------------------------------------------------------|
 A|--6---6------------------------------6---6------------4---/-7--------------|
 E|--6---6------------------------------6---6------------4---/-7--------------|
 B|--4---4-----0h2p0---5p0---4---0------4---4------------2---/-5--------------|
                                                                              |
Verse 2: Guitar 2 (Distorted)                                                 |
 B|--------------------------5---------------------------------5--------------|
F#|--------------------------6---------------------------------6--------------|
 D|---------------------------------------------------------------------------|
 A|---------------------------------------------------------------------------|
 E|---------------------------------------------------------------------------|
 B|---------------------------------------------------------------------------|
                                                                              |
Verse 2: Guitar 3 (Distorted)                                                 |
 B|-------19b(21)----------------------------19b(21)--------------------------|
F#|---------------------------------------------------------------------------|
 D|---------------------------------------------------------------------------|
 A|---------------------------------------------------------------------------|
 E|---------------------------------------------------------------------------|
 B|---------------------------------------------------------------------------|

Pre Chorus: Guitar 1 (Distorted) PLAY ENTIRE PRE CHORUS 2 TIMES
 B|---------------------------------------------------------------------------|
F#|---------------------------------------------------------------------------|
 D|---------------------------------------------------------------------------|
 A|--6---6------------------------------6---6------------4-----2--------------|
 E|--6---6------------------------------6---6------------4-----2--------------|
 B|--4---4-----0h2p0---5p0---4---0------4---4------------2-----0--------------|
                                                                              |
Pre Chorus: Guitar 2 (Distorted)                                              |
 B|--21---------20----------------------16------------------------------------|
F#|------------------------------------------------------------19-------------|
 D|---------------------------------------------------------------------------|
 A|---------------------------------------------------------------------------|
 E|---------------------------------------------------------------------------|
 B|---------------------------------------------------------------------------|
                                                                              |
Pre Chorus: Guitar 3 (Distorted)                                              |
 B|-------19b(21)----------------------------19b(21)--------------------------|
F#|---------------------------------------------------------------------------|
 D|---------------------------------------------------------------------------|
 A|---------------------------------------------------------------------------|
 E|---------------------------------------------------------------------------|
 B|---------------------------------------------------------------------------|

Pre Chorus: Guitar 1 (Distorted)
 B|---------------------------------------------------------------------------|
F#|---------------------------------------------------------------------------|
 D|---------------------------------------------------------------------------|
 A|--6---6------------------------------6---6------------4---/-7--------------|
 E|--6---6------------------------------6---6------------4---/-7--------------|
 B|--4---4-----0h2p0---5p0---4---0------4---4------------2---/-5--------------|
                                                                              |
Pre Chorus: Guitar 2 (Distorted)          Don’t play the (17) on the 2nd time |
 B|--21---------20----------------------16-----------------|--(17)------------|
F#|--------------------------------------------------------|------------------|
 D|--------------------------------------------------------|------------------|
 A|--------------------------------------------------------|------------------|
 E|--------------------------------------------------------|------------------|
 B|--------------------------------------------------------|------------------|
                                                                              |
Pre Chorus: Guitar 3 (Distorted)                                              |
 B|-------19b(21)----------------------------19b(21)--------------------------|
F#|---------------------------------------------------------------------------|
 D|---------------------------------------------------------------------------|
 A|---------------------------------------------------------------------------|
 E|---------------------------------------------------------------------------|
 B|---------------------------------------------------------------------------|

Chorus: Guitar 1 (Distorted)
 B|---------------------------------------------------------------------------|
F#|---------------------------------------------------------------------------|
 D|--6---6---6---6-----2---2---2---2-----------------------4---4-----5---5----|
 A|--6---6---6---6-----2---2---2---2-----2---2---2---2-----4---4-----5---5----|
 E|--4---4---4---4-----0---0---0---0-----2---2---2---2-----2---2-----3---3----|
 B|--------------------------------------0---0---0---0------------------------|
                                                                              |
Chorus: Guitar 2 (Distorted)                                                  |
 B|---------------------------------------------------------------------------|
F#|--14----------------------------------------------------12--------14-------|
 D|----------------------------14--------13-----------------------------------|
 A|--------------------14-----------------------------------------------------|
 E|---------------------------------------------------------------------------|
 B|---------------------------------------------------------------------------|

Chorus: Guitar 1 (Distorted)
 B|---------------------------------------------------------------------------|
F#|---------------------------------------------------------------------------|
 D|--6---6---6---6-----2---2---2---2------------------------------------------|
 A|--6---6---6---6-----2---2---2---2-----2---2---2---2-----6---6---6---6------|
 E|--4---4---4---4-----0---0---0---0-----2---2---2---2-----6---6---6---6------|
 B|--------------------------------------0---0---0---0-----4---4---4---4------|
                                                                              |
Chorus: Guitar 2 (Distorted)                                                  |
 B|----------------------------------------------------------------11--14-----|
F#|--14----------------------------------------------------13--14-------------|
 D|----------------------------14--------13-----------------------------------|
 A|-------------------14------------------------------------------------------|
 E|---------------------------------------------------------------------------|
 B|---------------------------------------------------------------------------|

Chorus: Guitar 1 (Distorted)
 B|---------------------------------------------------------------------------|
F#|---------------------------------------------------------------------------|
 D|--6---6---6---6-----2---2---2---2-----------------------4---4-----5---5----|
 A|--6---6---6---6-----2---2---2---2-----2---2---2---2-----4---4-----5---5----|
 E|--4---4---4---4-----0---0---0---0-----2---2---2---2-----2---2-----3---3----|
 B|--------------------------------------0---0---0---0------------------------|
                                                                              |
Chorus: Guitar 2 (Distorted and palm mute the 0's)                            |
 B|--14------16--------12------14--17----16------14--------12--14----11-------|
F#|------0-------0---------0-----------------0-------0------------------------|
 D|---------------------------------------------------------------------------|
 A|---------------------------------------------------------------------------|
 E|---------------------------------------------------------------------------|
 B|---------------------------------------------------------------------------|

Chorus: Guitar 1 (Distorted)
 B|---------------------------------------------------------------------------|
F#|---------------------------------------------------------------------------|
 D|--6---6---6---6-----2---2---2---2------------------------------------------|
 A|--6---6---6---6-----2---2---2---2-----2---2---2---2-----6---6---6---6------|
 E|--4---4---4---4-----0---0---0---0-----2---2---2---2-----6---6---6---6------|
 B|--------------------------------------0---0---0---0-----4---4---4---4------|
                                                                              |
Chorus: Guitar 2 (Distorted and palm mute the 0's)                            |
 B|--14------16--------12------14--17----16------14---------------------------|
F#|------0-------0---------0-----------------0-------0-----16--14--13---------|
 D|--------------------------------------------------------------------14-----|
 A|---------------------------------------------------------------------------|
 E|---------------------------------------------------------------------------|
 B|---------------------------------------------------------------------------|

Bridge: Guitar 1 (Distorted)
 B|---------------------------------------------------------------------------|
F#|---------------------------------------------------------------------------|
 D|---------------------------------------------------------------------------|
 A|--6----------------------------------------------------------------7-------|
 E|--6----------------------------------------------------------------7-------|
 B|--4----------------------------------------------------------------5-------|
                                                                              |
Bridge: Guitar 2 (Distorted)                                                  |
 B|---------------------------------------------------------------------------|
F#|---------------------------------------------------------------------------|
 D|--13-----------------------------------------------------------------------|
 A|---------------------------------------------------------------------------|
 E|---------------------------------------------------------------------------|
 B|---------------------------------------------------------------------------|

Bridge: Guitars 1 & 2 (Distorted) PLAY 4 TIMES
 B|---------------------------------------------------------------------------|
F#|---------------------------------------------------------------------------|
 D|---------------------------------------------------------------------------|
 A|--6-----6-----------------------7----6-----6-----------------------4-------|
 E|--6-----6-----9--8--7--6--5--6--7----6-----6-----9--8--7--6--5--7--4-------|
 B|--4-----4-----7--6--5--4--3--4--5----4-----4-----7--6--5--4--3--5--2-------|

Chorus: BASS ONLY
 B|---------------------------------------------------------------------------|
F#|---------------------------------------------------------------------------|
 D|---------------------------------------------------------------------------|
 A|---------------------------------------------------------------------------|
 E|---------------------------------------------------------------------------|
 B|---------------------------------------------------------------------------|

Chorus: BASS ONLY
 B|---------------------------------------------------------------------------|
F#|---------------------------------------------------------------------------|
 D|---------------------------------------------------------------------------|
 A|---------------------------------------------------------------------------|
 E|---------------------------------------------------------------------------|
 B|---------------------------------------------------------------------------|

Chorus: Guitar 1 (Distorted)
 B|---------------------------------------------------------------------------|
F#|---------------------------------------------------------------------------|
 D|--6---6---6---6-----2---2---2---2-----------------------4---4-----5---5----|
 A|--6---6---6---6-----2---2---2---2-----2---2---2---2-----4---4-----5---5----|
 E|--4---4---4---4-----0---0---0---0-----2---2---2---2-----2---2-----3---3----|
 B|--------------------------------------0---0---0---0------------------------|
                                                                              |
Chorus: Guitar 2 (Distorted)                                                  |
 B|---------------------------------------------------------------------------|
F#|--14----------------------------------------------------12--------14-------|
 D|----------------------------14--------13-----------------------------------|
 A|--------------------14-----------------------------------------------------|
 E|---------------------------------------------------------------------------|
 B|---------------------------------------------------------------------------|

Chorus: Guitar 1 (Distorted)
 B|---------------------------------------------------------------------------|
F#|---------------------------------------------------------------------------|
 D|--6---6---6---6-----2---2---2---2------------------------------------------|
 A|--6---6---6---6-----2---2---2---2-----2---2---2---2-----6---6---6---6------|
 E|--4---4---4---4-----0---0---0---0-----2---2---2---2-----6---6---6---6------|
 B|--------------------------------------0---0---0---0-----4---4---4---4------|
                                                                              |
Chorus: Guitar 2 (Distorted)                                                  |
 B|----------------------------------------------------------------11--14-----|
F#|--14----------------------------------------------------13--14-------------|
 D|----------------------------14--------13-----------------------------------|
 A|-------------------14------------------------------------------------------|
 E|---------------------------------------------------------------------------|
 B|---------------------------------------------------------------------------|

Chorus: Guitar 1 (Distorted)
 B|---------------------------------------------------------------------------|
F#|---------------------------------------------------------------------------|
 D|--6---6---6---6-----2---2---2---2-----------------------4---4-----5---5----|
 A|--6---6---6---6-----2---2---2---2-----2---2---2---2-----4---4-----5---5----|
 E|--4---4---4---4-----0---0---0---0-----2---2---2---2-----2---2-----3---3----|
 B|--------------------------------------0---0---0---0------------------------|
                                                                              |
Chorus: Guitar 2 (Distorted and palm mute the 0's)                            |
 B|--14------16--------12------14--17----16------14--------12--14----11-------|
F#|------0-------0---------0-----------------0-------0------------------------|
 D|---------------------------------------------------------------------------|
 A|---------------------------------------------------------------------------|
 E|---------------------------------------------------------------------------|
 B|---------------------------------------------------------------------------|

Chorus: Guitar 1 (Distorted)
 B|---------------------------------------------------------------------------|
F#|---------------------------------------------------------------------------|
 D|--6---6---6---6-----2---2---2---2------------------------------------------|
 A|--6---6---6---6-----2---2---2---2-----2---2---2---2-----6---6---6---6------|
 E|--4---4---4---4-----0---0---0---0-----2---2---2---2-----6---6---6---6------|
 B|--------------------------------------0---0---0---0-----4---4---4---4------|
                                                                              |
Chorus: Guitar 2 (Distorted and palm mute the 0's)                            |
 B|--14------16--------12------14--17----16------14---------------------------|
F#|------0-------0---------0-----------------0-------0-----16--14--13---------|
 D|--------------------------------------------------------------------14-----|
 A|---------------------------------------------------------------------------|
 E|---------------------------------------------------------------------------|
 B|---------------------------------------------------------------------------|

Outro: Guitar 1 (Distorted)
 B|---------------------------------------------------------------------------|
F#|---------------------------------------------------------------------------|
 D|--6---6---6---6-----2---2---2---2-----------------------4---4-----5---5----|
 A|--6---6---6---6-----2---2---2---2-----2---2---2---2-----4---4-----5---5----|
 E|--4---4---4---4-----0---0---0---0-----2---2---2---2-----2---2-----3---3----|
 B|--------------------------------------0---0---0---0------------------------|
                                                                              |
Outro: Guitar 2 (Distorted)                                                   |
 B|---------------------------------------------------------------------------|
F#|--14----------------------------------------------------12--13----14-------|
 D|----------------------------14--------13-----------------------------------|
 A|--------------------14-----------------------------------------------------|
 E|---------------------------------------------------------------------------|
 B|---------------------------------------------------------------------------|

Outro: Guitar 1 (Distorted)
 B|---------------------------------------------------------------------------|
F#|---------------------------------------------------------------------------|
 D|--6---6---6---6-----2---2---2---2------------------------------------------|
 A|--6---6---6---6-----2---2---2---2-----2---2---2---2-----6---6---6---6------|
 E|--4---4---4---4-----0---0---0---0-----2---2---2---2-----6---6---6---6------|
 B|--------------------------------------0---0---0---0-----4---4---4---4------|
                                                                              |
Outro: Guitar 2 (Distorted)                                                   |
 B|----------------------------------------------------------------11--14-----|
F#|--14----------------------------------------------------13--14-------------|
 D|----------------------------14--------13-----------------------------------|
 A|-------------------14------------------------------------------------------|
 E|---------------------------------------------------------------------------|
 B|---------------------------------------------------------------------------|

Outro: Guitar 1 (Distorted)
 B|---------------------------------------------------------------------------|
F#|---------------------------------------------------------------------------|
 D|--6---6---6---6-----2---2---2---2-----------------------4---4-----5---5----|
 A|--6---6---6---6-----2---2---2---2-----2---2---2---2-----4---4-----5---5----|
 E|--4---4---4---4-----0---0---0---0-----2---2---2---2-----2---2-----3---3----|
 B|--------------------------------------0---0---0---0------------------------|
                                                                              |
Outro: Guitar 2 (Distorted and palm mute the 0's)                             |
 B|--14------16--------12------14--17----16------14--------12--14----11-------|
F#|------0-------0---------0-----------------0-------0------------------------|
 D|---------------------------------------------------------------------------|
 A|---------------------------------------------------------------------------|
 E|---------------------------------------------------------------------------|
 B|---------------------------------------------------------------------------|

Outro: Guitar 1 (Distorted)
 B|---------------------------------------------------------------------------|
F#|---------------------------------------------------------------------------|
 D|--6---6---6---6-----2---2---2---2------------------------------------------|
 A|--6---6---6---6-----2---2---2---2-----2---2---2---2-----6---6---6---6------|
 E|--4---4---4---4-----0---0---0---0-----2---2---2---2-----6---6---6---6------|
 B|--------------------------------------0---0---0---0-----4---4---4---4------|
                                                                              |
Outro: Guitar 2 (Distorted and palm mute the 0's)                             |
 B|--14------16--------12------14--17----16------14---------------------------|
F#|------0-------0---------0-----------------0-------0-----16--14--13---------|
 D|--------------------------------------------------------------------14-----|
 A|---------------------------------------------------------------------------|
 E|---------------------------------------------------------------------------|
 B|---------------------------------------------------------------------------|

Finished!
comments
We did not receive enough feedback on this tab! Please rate:
print report bad tab
1 2 3 4 5
I want to post or [tab]
guest
You may want to rate the tab now too:
select rating
Please do not post tabs as comments. Select "correction" instead!