Oops, an error
Loading. Please wait.

Flush Tab

ver1
ver1

Whole song

Interactive

More versions @911Tabs.com
14,598 views 6 this week
7 commentsread comments
1 2 3 4 5
excellent!
x 6
Autoscroll
+/-
esc
set tempo
stop
Contributor
Hey! There's an official Ultimate Guitar app which is ideal
for learning songs when you're away from computer. Get the app
WARNING: You are trying to view
                                    content from Ultimate-Guitar.com
                                    in an unauthorized application,
                                    which is prohibited.

                                    Please use an official Ultimate
                                    Guitar Tabs application for iPhone,
                                    iPad or Android to access legitimate
                                    chords, guitar, bass, and drum tabs
                                    from Ultimate-Guitar.com database.

                                    Type "ultimate guitar tabs" in Apple
                                    App Store's or Android Market's
                                    search to find the application.
Brian Head Welch
Flush
Tabbed by U B the band
Tuning A E A D F# B

Legend
h-hammer on                        p-pull off                       /-slide up

Intro/Verse 1: Guitar 1 (Distorted) PLAY 4 TIMES
 B|---------------------------------------------------------------------------|
F#|---------------------------------------------------------------------------|
 D|---------------------------------------------------------------------------|
 A|---------------------------------------------------------------------------|
 E|---------1------------------------------1----------------------------------|
 A|--1---1------1---1---------------1---1------1---1------0-h1p0-2------------|

Pre Chorus: Guitar 1 (Distorted) PLAY 2 TIMES
 B|---------------------------------------------------------------------------|
F#|---------------------------------------------------------------------------|
 D|---------------------------------------------------------------------------|
 A|---------------------------------------------------------------------------|
 E|---------1------------------------------1----------------------------------|
 A|--1---1------1---1---------------1---1------1---1------0-h1p0-2------------|
                                                                              |
Pre Chorus: Guitar 2 (Clean with effects) PLAY 2 TIMES                        |
 B|-----18--19-18-----18---------------18--19-18------------------------------|
F#|--16------------16-----16-19-----16------------16-19--16-18----------------|
 D|---------------------------------------------------------------------------|
 A|---------------------------------------------------------------------------|
 E|---------------------------------------------------------------------------|
 A|---------------------------------------------------------------------------|

Chorus: Guitar 1: (Distorted)
 B|---------------------------------------------------------------------------|
F#|---------------------------------------------------------------------------|
 D|---------------------------------------------------------------------------|
 A|--6-6-6-6-6-6-6-6--4-4-4-4-4-4-4-4--2-2-2-2-2-2-2-2--/6-6-6-6--------------|
 E|--6-6-6-6-6-6-6-6--4-4-4-4-4-4-4-4--2-2-2-2-2-2-2-2--/4-4-4-4--1-1-5-5-----|
 A|--6-6-6-6-6-6-6-6--4-4-4-4-4-4-4-4--2-2-2-2-2-2-2-2------------1-1-5-5-----|
                                                                              |
Chorus: Guitar 2: (Distorted with tremolo)                                    |
 B|---------------------------------------------------------------------------|
F#|---------------------------------------------------------------------------|
 D|--13-----------------------------------------------------------------------|
 A|---x-----------------------------------------------------------------------|
 E|--11-----------------------------------------------------------------------|
 A|---------------------------------------------------------------------------|

Chorus: Guitar 1: (Distorted)
 B|---------------------------------------------------------------------------|
F#|---------------------------------------------------------------------------|
 D|---------------------------------------------------------------------------|
 A|--6-6-6-6-6-6-6-6--4-4-4-4-4-4-4-4--2-2-2-2-2-2-2-2--/6-6-6-6--------------|
 E|--6-6-6-6-6-6-6-6--4-4-4-4-4-4-4-4--2-2-2-2-2-2-2-2--/4-4-4-4--1-1-5-5-----|
 A|--6-6-6-6-6-6-6-6--4-4-4-4-4-4-4-4--2-2-2-2-2-2-2-2------------1-1-5-5-----|
                                                                              |
Chorus: Guitar 2: (Distorted with tremolo)                                    |
 B|---------------------------------------------------------------------------|
F#|---------------------------------------------------------------------------|
 D|--13-----/16-------15-----/18-------16------15--------13-------12----------|
 A|---x-------x--------x-------x--------x-------x---------x--------x----------|
 E|--11-----/18-------13-----/15-------14------13--------11-------10----------|
 A|---------------------------------------------------------------------------|

Post Chorus: Guitar 1 (Distorted)
 B|---------------------------------------------------------------------------|
F#|---------------------------------------------------------------------------|
 D|---------------------------------------------------------------------------|
 A|---------------------------------------------------------------------------|
 E|---------1------------------------------1----------------------------------|
 A|--1---1------1---1---------------1---1------1---1------0-h1p0-2------------|
                                                                              |
Post Chorus: Guitar 2 (Clean with effects)                                    |
 B|-----18--19-18-----18---------------18--19-18------------------------------|
F#|--16------------16-----16-19-----16------------16-19--16-18----------------|
 D|---------------------------------------------------------------------------|
 A|---------------------------------------------------------------------------|
 E|---------------------------------------------------------------------------|
 A|---------------------------------------------------------------------------|

Post Chorus: Guitar 1 (Distorted)
 B|---------------------------------------------------------------------------|
F#|---------------------------------------------------------------------------|
 D|---------------------------------------------------------------------------|
 A|---------------------------------------------------------------------------|
 E|---------1------------------------------1----------------------------------|
 A|--1---1------1---1---------------1---1------1---1------0h1h2---------------|
                                                                              |
Post Chorus: Guitar 2 (Clean with effects)                                    |
 B|-----18--19-18-----18---------------18--19-18------------------------------|
F#|--16------------16-----16-19-----16------------16-19--18-------------------|
 D|---------------------------------------------------------------------------|
 A|---------------------------------------------------------------------------|
 E|---------------------------------------------------------------------------|
 A|---------------------------------------------------------------------------|

Verse 2: Guitar 1 (Distorted) PLAY 4 TIMES
 B|---------------------------------------------------------------------------|
F#|---------------------------------------------------------------------------|
 D|---------------------------------------------------------------------------|
 A|---------------------------------------------------------------------------|
 E|---------1------------------------------1----------------------------------|
 A|--1---1------1---1---------------1---1------1---1------0-h1p0-2------------|

Pre Chorus: Guitar 1 (Distorted) PLAY 2 TIMES
 B|---------------------------------------------------------------------------|
F#|---------------------------------------------------------------------------|
 D|---------------------------------------------------------------------------|
 A|---------------------------------------------------------------------------|
 E|---------1------------------------------1----------------------------------|
 A|--1---1------1---1---------------1---1------1---1------0-h1p0-2------------|
                                                                              |
Pre Chorus: Guitar 2 (Clean with effects) PLAY 2 TIMES                        |
 B|-----18--19-18-----18---------------18--19-18------------------------------|
F#|--16------------16-----16-19-----16------------16-19--16-18----------------|
 D|---------------------------------------------------------------------------|
 A|---------------------------------------------------------------------------|
 E|---------------------------------------------------------------------------|
 A|---------------------------------------------------------------------------|

Chorus: Guitar 1: (Distorted)
 B|---------------------------------------------------------------------------|
F#|---------------------------------------------------------------------------|
 D|---------------------------------------------------------------------------|
 A|--6-6-6-6-6-6-6-6--4-4-4-4-4-4-4-4--2-2-2-2-2-2-2-2--/6-6-6-6--------------|
 E|--6-6-6-6-6-6-6-6--4-4-4-4-4-4-4-4--2-2-2-2-2-2-2-2--/4-4-4-4--1-1-5-5-----|
 A|--6-6-6-6-6-6-6-6--4-4-4-4-4-4-4-4--2-2-2-2-2-2-2-2------------1-1-5-5-----|
                                                                              |
Chorus: Guitar 2: (Distorted with tremolo)                                    |
 B|---------------------------------------------------------------------------|
F#|---------------------------------------------------------------------------|
 D|--13-----------------------------------------------------------------------|
 A|---x-----------------------------------------------------------------------|
 E|--11-----------------------------------------------------------------------|
 A|---------------------------------------------------------------------------|

Chorus: Guitar 1: (Distorted)
 B|---------------------------------------------------------------------------|
F#|---------------------------------------------------------------------------|
 D|---------------------------------------------------------------------------|
 A|--6-6-6-6-6-6-6-6--4-4-4-4-4-4-4-4--2-2-2-2-2-2-2-2--/6-6-6-6--------------|
 E|--6-6-6-6-6-6-6-6--4-4-4-4-4-4-4-4--2-2-2-2-2-2-2-2--/4-4-4-4--1-1-5-5-----|
 A|--6-6-6-6-6-6-6-6--4-4-4-4-4-4-4-4--2-2-2-2-2-2-2-2------------1-1-5-5-----|
                                                                              |
Chorus: Guitar 2: (Distorted with tremolo)                                    |
 B|---------------------------------------------------------------------------|
F#|---------------------------------------------------------------------------|
 D|--13-----/16-------15-----/18-------16------15--------13-------12----------|
 A|---x-------x--------x-------x--------x-------x---------x--------x----------|
 E|--11-----/18-------13-----/15-------14------13--------11-------10----------|
 A|---------------------------------------------------------------------------|

Bridge: Guitar 1 (Distorted)
 B|---------------------------------------------------------------------------|
F#|---------------------------------------------------------------------------|
 D|---------------------------------------------------------------------------|
 A|--1---------------------------------1--------------------------------------|
 E|--1---------------------------1-----1---------------------------1--2-------|
 A|--1---------------------1--2-----2--1---------------------1--2-------------|
                                                                              |
Bridge: Guitar 2 (Distorted with phase shifter)                               |
 B|------16--15------15----------16--------16--15------------------18-19------|
F#|--16----------16--------16-17----17-16----------16--16----16-17------------|
 D|---------------------------------------------------------------------------|
 A|---------------------------------------------------------------------------|
 E|---------------------------------------------------------------------------|
 A|---------------------------------------------------------------------------|

Bridge: Guitar 1 (Distorted) "Tell me no gossip"
 B|---------------------------------------------------------------------------|
F#|---------------------------------------------------------------------------|
 D|---------------------------------------------------------------------------|
 A|--2---------------------4-----------2--------------------------------------|
 E|--2---------------------4-----------2--------------------------------------|
 A|--2---------------------4-----------2---------------------5--4--3--2-------|
                                                                              |
Bridge: Guitar 2 (Distorted with phase shifter)                               |
 B|------19--18------16----18-19-21-19-18--19--18--19-------------------------|
F#|--19----------19------------------------------------19----20-19-18-17------|
 D|---------------------------------------------------------------------------|
 A|---------------------------------------------------------------------------|
 E|---------------------------------------------------------------------------|
 A|---------------------------------------------------------------------------|

Bridge: Guitar 1 (Distorted)
 B|---------------------------------------------------------------------------|
F#|---------------------------------------------------------------------------|
 D|---------------------------------------------------------------------------|
 A|--1---------------------------------1--------------------------------------|
 E|--1---------------------------1-----1---------------------------1--2-------|
 A|--1---------------------1--2-----2--1---------------------1--2-------------|
                                                                              |
Bridge: Guitar 2 (Distorted with phase shifter)                               |
 B|------16--15------15----------16--------16--15------------------18-19------|
F#|--16----------16--------16-17----17-16----------16--16----16-17------------|
 D|---------------------------------------------------------------------------|
 A|---------------------------------------------------------------------------|
 E|---------------------------------------------------------------------------|
 A|---------------------------------------------------------------------------|
                                                                              |
Bridge: Guitar 3 (Distorted with phase shifter)                               |
 B|---------------------------------------------------------------------------|
F#|--------------14----------16--14----------------14---------16--14----------|
 D|--12--13--12------12----13--13---13-12--13--12------12---13--13------------|
 A|---------------------------------------------------------------------------|
 E|---------------------------------------------------------------------------|
 A|---------------------------------------------------------------------------|

Bridge: Guitar 1 (Distorted) "Jimmy got caught"
 B|---------------------------------------------------------------------------|
F#|---------------------------------------------------------------------------|
 D|---------------------------------------------------------------------------|
 A|--1---------------------------------1--------------------------------------|
 E|--1---------------------------1-----1---------------------------1--2-------|
 A|--1---------------------1--2-----2--1---------------------1--2-------------|
                                                                              |
Bridge: Guitar 2 (Distorted with phase shifter)                               |
 B|------16--15------15----------16--------16--15------------------18-19------|
F#|--16----------16--------16-17----17-16----------16--16----16-17------------|
 D|---------------------------------------------------------------------------|
 A|---------------------------------------------------------------------------|
 E|---------------------------------------------------------------------------|
 A|---------------------------------------------------------------------------|

Bridge: Guitar 1 (Distorted) "Lisa got popped"
 B|---------------------------------------------------------------------------|
F#|---------------------------------------------------------------------------|
 D|---------------------------------------------------------------------------|
 A|--1---------------------------------1--------------------------------------|
 E|--1---------------------------1-----1---------------------------1--2-------|
 A|--1---------------------1--2-----2--1---------------------1--2-------------|
                                                                              |
Bridge: Guitar 2 (Distorted with phase shifter)                               |
 B|------16--15------15----------16--------16--15------------------18-19------|
F#|--16----------16--------16-17----17-16----------16--16----16-17------------|
 D|---------------------------------------------------------------------------|
 A|---------------------------------------------------------------------------|
 E|---------------------------------------------------------------------------|
 A|---------------------------------------------------------------------------|

Bridge: Guitar 1 (Distorted) "Tell me no gossip"
 B|---------------------------------------------------------------------------|
F#|---------------------------------------------------------------------------|
 D|---------------------------------------------------------------------------|
 A|--2---------------------4-----------2--------------------------------------|
 E|--2---------------------4-----------2--------------------------------------|
 A|--2---------------------4-----------2---------------------5--4--3--2-------|
                                                                              |
Bridge: Guitar 2 (Distorted with phase shifter)                               |
 B|------19--18------16----18-19-21-19-18--19--18--19-------------------------|
F#|--19----------19------------------------------------19----20-19-18-17------|
 D|---------------------------------------------------------------------------|
 A|---------------------------------------------------------------------------|
 E|---------------------------------------------------------------------------|
 A|---------------------------------------------------------------------------|

Bridge: Guitar 1 (Distorted)
 B|---------------------------------------------------------------------------|
F#|---------------------------------------------------------------------------|
 D|---------------------------------------------------------------------------|
 A|--1------------------------------------------------------------------------|
 E|--1---------------------------1--2-----------------------------------------|
 A|--1---------------------1--2-----------------------------------------------|
                                                                              |
Bridge: Guitar 2 (Distorted with phase shifter)                               |
 B|------16--15------------------18-19----------------------------------------|
F#|--16----------16--16----16-17----------------------------------------------|
 D|---------------------------------------------------------------------------|
 A|---------------------------------------------------------------------------|
 E|---------------------------------------------------------------------------|
 A|---------------------------------------------------------------------------|
                                                                              |
Bridge: Guitar 3 (Distorted with phase shifter)                               |
 B|---------------------------------------------------------------------------|
F#|--------------14----------16--14-------------------------------------------|
 D|--12--13--12------12----13--13---------------------------------------------|
 A|---------------------------------------------------------------------------|
 E|---------------------------------------------------------------------------|
 A|---------------------------------------------------------------------------|

Bridge: Guitar 1 (Distorted) "Pedro got jumped"
 B|---------------------------------------------------------------------------|
F#|---------------------------------------------------------------------------|
 D|---------------------------------------------------------------------------|
 A|--1---------------------------------1--------------------------------------|
 E|--1---------------------------1-----1---------------------------1--2-------|
 A|--1---------------------1--2-----2--1---------------------1--2-------------|
                                                                              |
Bridge: Guitar 2 (Distorted with phase shifter)                               |
 B|------16--15------15----------16--------16--15------------------18-19------|
F#|--16----------16--------16-17----17-16----------16--16----16-17------------|
 D|---------------------------------------------------------------------------|
 A|---------------------------------------------------------------------------|
 E|---------------------------------------------------------------------------|
 A|---------------------------------------------------------------------------|

Bridge: Guitar 1 (Distorted) "Reggie O.D."
 B|---------------------------------------------------------------------------|
F#|---------------------------------------------------------------------------|
 D|---------------------------------------------------------------------------|
 A|--1---------------------------------1--------------------------------------|
 E|--1---------------------------1-----1---------------------------1--2-------|
 A|--1---------------------1--2-----2--1---------------------1--2-------------|
                                                                              |
Bridge: Guitar 2 (Distorted with phase shifter)                               |
 B|------16--15------15----------16--------16--15------------------18-19------|
F#|--16----------16--------16-17----17-16----------16--16----16-17------------|
 D|---------------------------------------------------------------------------|
 A|---------------------------------------------------------------------------|
 E|---------------------------------------------------------------------------|
 A|---------------------------------------------------------------------------|

Bridge: Guitar 1 (Distorted) "Take me away"
 B|---------------------------------------------------------------------------|
F#|---------------------------------------------------------------------------|
 D|---------------------------------------------------------------------------|
 A|--2---------------------4-----------2--------------------------------------|
 E|--2---------------------4-----------2--------------------------------------|
 A|--2---------------------4-----------2---------------------5--4--3--2-------|
                                                                              |
Bridge: Guitar 2 (Distorted with phase shifter)                               |
 B|------19--18------16----18-19-21-19-18--19--18--19-------------------------|
F#|--19----------19------------------------------------19----20-19-18-17------|
 D|---------------------------------------------------------------------------|
 A|---------------------------------------------------------------------------|
 E|---------------------------------------------------------------------------|
 A|---------------------------------------------------------------------------|

Bridge: Guitar 1 (Distorted) "Life blows"
 B|---------------------------------------------------------------------------|
F#|---------------------------------------------------------------------------|
 D|---------------------------------------------------------------------------|
 A|--1---------------------------------1--------------------------------------|
 E|--1---------------------------1-----1---------------------------1--2-------|
 A|--1---------------------1--2-----2--1---------------------1--2-------------|
                                                                              |
Bridge: Guitar 2 (Distorted with phase shifter)                               |
 B|------16--15------15----------16--------16--15------------------18-19------|
F#|--16----------16--------16-17----17-16----------16--16----16-17------------|
 D|---------------------------------------------------------------------------|
 A|---------------------------------------------------------------------------|
 E|---------------------------------------------------------------------------|
 A|---------------------------------------------------------------------------|
                                                                              |
Bridge: Guitar 3 (Distorted with phase shifter)                               |
 B|---------------------------------------------------------------------------|
F#|--------------14----------16--14----------------14---------16--14----------|
 D|--12--13--12------12----13--13---13-12--13--12------12---13--13------------|
 A|---------------------------------------------------------------------------|
 E|---------------------------------------------------------------------------|
 A|---------------------------------------------------------------------------|

Bridge: Guitar 1 (Distorted) "FLUSH"
 B|---------------------------------------------------------------------------|
F#|---------------------------------------------------------------------------|
 D|---------------------------------------------------------------------------|
 A|--1---------------------------------1--------------------------------------|
 E|--1---------------------------1-----1---------------------------1--2-------|
 A|--1---------------------1--2-----2--1---------------------1--2-------------|

Bridge: Guitar 1 (Distorted) PLAY 2 TIMES
 B|---------------------------------------------------------------------------|
F#|---------------------------------------------------------------------------|
 D|---------------------------------------------------------------------------|
 A|---------------------------------------------------------------------------|
 E|---------1------------------------------1----------------------------------|
 A|--1---1------1---1---------------1---1------1---1------0-h1p0-2------------|

Chorus: Guitar 1: (Distorted)
 B|---------------------------------------------------------------------------|
F#|---------------------------------------------------------------------------|
 D|---------------------------------------------------------------------------|
 A|--6-6-6-6-6-6-6-6--4-4-4-4-4-4-4-4--2-2-2-2-2-2-2-2--/6-6-6-6--------------|
 E|--6-6-6-6-6-6-6-6--4-4-4-4-4-4-4-4--2-2-2-2-2-2-2-2--/4-4-4-4--1-1-5-5-----|
 A|--6-6-6-6-6-6-6-6--4-4-4-4-4-4-4-4--2-2-2-2-2-2-2-2------------1-1-5-5-----|
                                                                              |
Chorus: Guitar 2: (Distorted with tremolo)                                    |
 B|---------------------------------------------------------------------------|
F#|---------------------------------------------------------------------------|
 D|--13-----------------------------------------------------------------------|
 A|---x-----------------------------------------------------------------------|
 E|--11-----------------------------------------------------------------------|
 A|---------------------------------------------------------------------------|

Chorus: Guitar 1: (Distorted)
 B|---------------------------------------------------------------------------|
F#|---------------------------------------------------------------------------|
 D|---------------------------------------------------------------------------|
 A|--6-6-6-6-6-6-6-6--4-4-4-4-4-4-4-4--2-2-2-2-2-2-2-2--/6-6-6-6--------------|
 E|--6-6-6-6-6-6-6-6--4-4-4-4-4-4-4-4--2-2-2-2-2-2-2-2--/4-4-4-4--1-1-5-5-----|
 A|--6-6-6-6-6-6-6-6--4-4-4-4-4-4-4-4--2-2-2-2-2-2-2-2------------1-1-5-5-----|
                                                                              |
Chorus: Guitar 2: (Distorted with tremolo)                                    |
 B|---------------------------------------------------------------------------|
F#|---------------------------------------------------------------------------|
 D|--13-----/16-------15-----/18-------16------15--------13-------12----------|
 A|---x-------x--------x-------x--------x-------x---------x--------x----------|
 E|--11-----/18-------13-----/15-------14------13--------11-------10----------|
 A|---------------------------------------------------------------------------|

Chorus: Guitar 1: (Distorted)
 B|---------------------------------------------------------------------------|
F#|---------------------------------------------------------------------------|
 D|---------------------------------------------------------------------------|
 A|--6-6-6-6-6-6-6-6--4-4-4-4-4-4-4-4--2-2-2-2-2-2-2-2--/6-6-6-6--------------|
 E|--6-6-6-6-6-6-6-6--4-4-4-4-4-4-4-4--2-2-2-2-2-2-2-2--/4-4-4-4--1-1-5-5-----|
 A|--6-6-6-6-6-6-6-6--4-4-4-4-4-4-4-4--2-2-2-2-2-2-2-2------------1-1-5-5-----|
                                                                              |
Chorus: Guitar 2: (Distorted with tremolo)                                    |
 B|---------------------------------------------------------------------------|
F#|---------------------------------------------------------------------------|
 D|--13------15--16---15------16---18--16------18---20--18---16---15--12------|
 A|---x-------x---x----x-------x----x---x-------x----x---x----x----x---x------|
 E|--11------13--14---13------14---16--14------16---18--16---14---13--10------|
 A|---------------------------------------------------------------------------|

Chorus: Guitar 1: (Distorted)
 B|---------------------------------------------------------------------------|
F#|---------------------------------------------------------------------------|
 D|---------------------------------------------------------------------------|
 A|--6-6-6-6-6-6-6-6--4-4-4-4-4-4-4-4--2-2-2-2-2-2-2-2--/6-6-6-6--------------|
 E|--6-6-6-6-6-6-6-6--4-4-4-4-4-4-4-4--2-2-2-2-2-2-2-2--/4-4-4-4--1-1-5-5-----|
 A|--6-6-6-6-6-6-6-6--4-4-4-4-4-4-4-4--2-2-2-2-2-2-2-2------------1-1-5-5-----|
                                                                              |
Chorus: Guitar 2: (Distorted with tremolo)                                    |
 B|--------------------------------14---------------14--16--14----------------|
F#|--12------14--16---14------16---14----------16---14--16--14--16--14--11----|
 D|--13------15--16---15------16---------------16---------------16--15--12----|
 A|---------------------------------------------------------------------------|
 E|---------------------------------------------------------------------------|
 A|---------------------------------------------------------------------------|

Finished!

comments
print report bad tab
7 comments total. Showing first comments.
-2 reply
runningblind20 wrote on January 29 2009, 09:21 pm

This is a pretty good tab, but Brian DOES use a 7-string guitar to play this song. If you watch the music video you can see it.

+1 reply
U B the band wrote on January 30 2009, 12:06 am

Maybe in the music video he used it as a prop but he clearly said in an interview that he used no 7 strings to record Save Me From Myself. Here's the interview:

http://www.ultimate-guitar.com/interviews/interviews/brian_welch_i_was_completely_out_of_energy_before_i_found_christ.ht
ml

He said "I actually have switched to play 6-string guitars. I used 6 string Baritones on my entire CD. Not one 7 string was used. It seems to me that I could get a cleaner, less muddy, guitar tone with the baritone compared to the 7 string. That's my opinion anyway."

0 reply
Draconey wrote on February 3 2009, 02:10 pm

Music videos are always trying to make the band look better than they are. Look at ACDC and SOAD music videos.

I want to post or [tab]
guest
You may want to rate the tab now too:
select rating
Please do not post tabs as comments. Select "correction" instead!