Oops, an error
Loading. Please wait.

Magneto Tab

ver1
ver1

Whole song

More versions @911Tabs.com
1,511 views 9 this week
4 commentsread comments
1 2 3 4 5
excellent!
x 3
Autoscroll
+/-
esc
set tempo
stop
Difficulty
Tuning
novice
D A D G B E
WARNING: You are trying to view
                                    content from Ultimate-Guitar.com
                                    in an unauthorized application,
                                    which is prohibited.

                                    Please use an official Ultimate
                                    Guitar Tabs application for iPhone,
                                    iPad or Android to access legitimate
                                    chords, guitar, bass, and drum tabs
                                    from Ultimate-Guitar.com database.

                                    Type "ultimate guitar tabs" in Apple
                                    App Store's or Android Market's
                                    search to find the application.
-----------------------------------------------------------------------------
                             Magneto - Brigade
-----------------------------------------------------------------------------

Tabbed by: Matt
Email: Matthew_norton@hotmail.com

Tuning: Drop D (e,b,g,d,a,D)

Guitar 1 - Will Simpson

e|--------------------------------------------------------------------------|
B|--------------------------------------------------------------------------|
G|--------------------------------------------------------------------------|
D|--4-0-4-0---0-4-0-4-0---0-5555.---0~--------------------------------------|
A|--4-0-4-0---0-4-0-4-0---0-5555.---0~--------------------------------------|
D|--4-0-4-0---0-4-0-4-0---0-5555.---0~--------------------------------------|

e|--------------------------------------------------------------------------|
B|--------------------------------------------------------------------------|
G|--------------------------------------------------------------------------|
D|--4-0-4-0---0-4-0-4-0---0-5555.---0~--------------------------------------|
A|--4-0-4-0---0-4-0-4-0---0-5555.---0~--------------------------------------|
D|--4-0-4-0---0-4-0-4-0---0-5555.---0~--------------------------------------|

e|--------------------------------------------------------------------------|
B|--------------------------------------------------------------------------|
G|--------------------------------------------------------------------------|
D|--4-0-4-0---0-4-0-4-0---0-5555.---0~--------------------------------------|
A|--4-0-4-0---0-4-0-4-0---0-5555.---0~--------------------------------------|
D|--4-0-4-0---0-4-0-4-0---0-5555.---0~--------------------------------------|

e|--------------------------------------------------------------------------|
B|--------------------------------------------------------------------------|
G|--------------------------------------------------------------------------|
D|--4-0-4-0---0-4-0-4-0---0-5555--------------------------------------------|
A|--4-0-4-0---0-4-0-4-0---0-5555--------------------------------------------|
D|--4-0-4-0---0-4-0-4-0---0-5555--------------------------------------------|

e|--------------------------------------------------------------------------|
B|--------------------------------------------------------------------------|
G|--111---111---111199----99----9-9-77----77----7-7-1212---1212---12-12-----|
D|--xx----xx----x-x-xx----xx----x-x-xx----xx----x-x-x-x----x-x----x--x------|
A|--99----99----9-9-77----77----7-7-55----55----5-5-1010---1010---10-10-----|
D|--------------------------------------------------------------------------|

e|--------------------------------------------------------------------------|
B|--------------------------------------------------------------------------|
G|--111---111---111199----99----9-9-----------------------------------------|
D|--xx----xx----x-x-xx----xx----x-x-----------------------------------------|
A|--99----99----9-9-77----77----7-7-----------------------------------------|
D|--------------------------------------------------------------------------|

e|--------------------------------------------------------------------------|
B|--------------------------------------------------------------------------|
G|--------------------------------------------------------------------------|
D|--0c--------------5c--------------9c------7c------5c----------------------|
A|--0c--------------5c--------------9c------7c------5c----------------------|
D|--0c--------------5c--------------9c------7c------5c----------------------|
Pm  x x x x x x x x x x x x x x x x x x x x x x x x x x x x x x x x

e|--------------------------------------------------------------------------|
B|--------------------------------------------------------------------------|
G|--------------------------------------------------------------------------|
D|--4-0-----4-0-----4-0---4-5555.---0~--------------------------------------|
A|--4-0-----4-0-----4-0---4-5555.---0~--------------------------------------|
D|--4-0-----4-0-----4-0---4-5555.---0~--------------------------------------|

e|--------------------------------------------------------------------------|
B|--------------------------------------------------------------------------|
G|--------------------------------------------------------------------------|
D|--4-0-----4-0-----4-0---4-5555.---0~--------------------------------------|
A|--4-0-----4-0-----4-0---4-5555.---0~--------------------------------------|
D|--4-0-----4-0-----4-0---4-5555.---0~--------------------------------------|

e|--------------------------------------------------------------------------|
B|--------------------------------------------------------------------------|
G|--------------------------------------------------------------------------|
D|--4-0-----4-0-----4-0---4-5555.---0~--------------------------------------|
A|--4-0-----4-0-----4-0---4-5555.---0~--------------------------------------|
D|--4-0-----4-0-----4-0---4-5555.---0~--------------------------------------|

e|--------------------------------------------------------------------------|
B|--------------------------------------------------------------------------|
G|--------------------------------------------------------------------------|
D|--4-0-----4-0-----4-0---4-5555--------------------------------------------|
A|--4-0-----4-0-----4-0---4-5555--------------------------------------------|
D|--4-0-----4-0-----4-0---4-5555--------------------------------------------|

e|--------------------------------------------------------------------------|
B|--------------------------------------------------------------------------|
G|--111---111---111199----99----9-9-77----77----7-7-1212---1212---12-12-----|
D|--xx----xx----x-x-xx----xx----x-x-xx----xx----x-x-x-x----x-x----x--x------|
A|--99----99----9-9-77----77----7-7-55----55----5-5-1010---1010---10-10-----|
D|--------------------------------------------------------------------------|

e|--------------------------------------------------------------------------|
B|--------------------------------------------------------------------------|
G|--111---111---111199----99----9-9-----------------------------------------|
D|--xx----xx----x-x-xx----xx----x-x-----------------------------------------|
A|--99----99----9-9-77----77----7-7-----------------------------------------|
D|--------------------------------------------------------------------------|

e|--------------------------------------------------------------------------|
B|--------------------------------------------------------------------------|
G|--------------------------------------------------------------------------|
D|--0c--------------5c--------------9c------7c------5c----------------------|
A|--0c--------------5c--------------9c------7c------5c----------------------|
D|--0c--------------5c--------------9c------7c------5c----------------------|
Pm  x x x x x x x x x x x x x x x x x x x x x x x x x x x x x x x x

e|--------------------------------------------------------------------------|
B|--------------------------------------------------------------------------|
G|--2c--------------7c--------------11c-----9c------7c----------------------|
D|--0c--------------5c--------------9c------7c------5c----------------------|
A|--0c--------------5c--------------9c------7c------5c----------------------|
D|--0c--------------5c--------------9c------7c------5c----------------------|

e|--------------------------------------------------------------------------|
B|--------------------------------------------------------------------------|
G|--9/11-11\9-9/11-11\9-9/11-11\9-------------------------------------------|
D|--x/x--x-\x-x/x--x-\x-x/x--x-\x-------------------------------------------|
A|--7/9--9-\7-7/9--9-\7-7/9--9-\7-------------------------------------------|
D|---------------------------------0-000-0-0--------------------------------|

e|--------------------------------------------------------------------------|
B|--------------------------------------------------------------------------|
G|--9/11-11\9-9/11-11\9-9/11-11\9-------------------------------------------|
D|--x/x--x-\x-x/x--x-\x-x/x--x-\x-------------------------------------------|
A|--7/9--9-\7-7/9--9-\7-7/9--9-\7-------------------------------------------|
D|---------------------------------0-000-0-0--------------------------------|

e|--------------------------------------------------------------------------|
B|--------------------------------------------------------------------------|
G|--11c-----13c-----2c------7c----------------------------------------------|
D|--9c------11c-----0c------5c----------------------------------------------|
A|--9c------11c-----0c------5c----------------------------------------------|
D|--9c------11c-----0c------5c----------------------------------------------|

e|--------------------------------------------------------------------------|
B|--------------------------------------------------------------------------|
G|--2222---2-2-7777---------------------------------------------------------|
D|--0000.--0-0-7777-5555----------------------------------------------------|
A|--0000.--0-0-5555-5555----------------------------------------------------|
D|--0000.--0-0-0000-5555----------------------------------------------------|

e|--------------------------------------------------------------------------|
B|--------------------------------------------------------------------------|
G|--2222---2-2-7777---------------------------------------------------------|
D|--0000.--0-0-7777-5555----------------------------------------------------|
A|--0000.--0-0-5555-5555----------------------------------------------------|
D|--0000.--0-0-0000-5555----------------------------------------------------|

e|--------------------------------------------------------------------------|
B|--------------------------------------------------------------------------|
G|--2222---2-2-7777---------------------------------------------------------|
D|--0000.--0-0-7777-5555----------------------------------------------------|
A|--0000.--0-0-5555-5555----------------------------------------------------|
D|--0000.--0-0-0000-5555----------------------------------------------------|

e|--------------------------------------------------------------------------|
B|--------------------------------------------------------------------------|
G|--2222---2-2-7777---------------------------------------------------------|
D|--0000.--0-0-7777-5555-0~-------------------------------------------------|
A|--0000.--0-0-5555-5555-0~-------------------------------------------------|
D|--0000.--0-0-0000-5555-0~-------------------------------------------------|

Guitar 2 - James Plant

e|--------------------------------------------------------------------------|
B|--------------------------------------------------------------------------|
G|--------------------------------------------------------------------------|
D|--4-0-4-0---0-4-0-4-0---0-5555.---0~--------------------------------------|
A|--4-0-4-0---0-4-0-4-0---0-5555.---0~--------------------------------------|
D|--4-0-4-0---0-4-0-4-0---0-5555.---0~--------------------------------------|

e|--------------------------------------------------------------------------|
B|--------------------------------------------------------------------------|
G|--------------------------------------------------------------------------|
D|--4-0-4-0---0-4-0-4-0---0-5555.---0~--------------------------------------|
A|--4-0-4-0---0-4-0-4-0---0-5555.---0~--------------------------------------|
D|--4-0-4-0---0-4-0-4-0---0-5555.---0~--------------------------------------|

e|--------------------------------------------------------------------------|
B|--------------------------------------------------------------------------|
G|--------------------------------------------------------------------------|
D|--4-0-4-0---0-4-0-4-0---0-5555.---0~--------------------------------------|
A|--4-0-4-0---0-4-0-4-0---0-5555.---0~--------------------------------------|
D|--4-0-4-0---0-4-0-4-0---0-5555.---0~--------------------------------------|

e|--------------------------------------------------------------------------|
B|--------------------------------------------------------------------------|
G|--------------------------------------------------------------------------|
D|--4-0-4-0---0-4-0-4-0---0-5555--------------------------------------------|
A|--4-0-4-0---0-4-0-4-0---0-5555--------------------------------------------|
D|--4-0-4-0---0-4-0-4-0---0-5555--------------------------------------------|

e|--0c------0c------0c------0c------0c-------0c-----------------------------|
B|--3c------5c------7c------10c-----3c-------5c-----------------------------|
G|--------------------------------------------------------------------------|
D|--------------------------------------------------------------------------|
A|--------------------------------------------------------------------------|
D|--------------------------------------------------------------------------|

e|--------------------------------------------------------------------------|
B|--------------------------------------------------------------------------|
G|--------------------------------------------------------------------------|
D|--0--11-0--12-0--0--12-0--11-0--12-0--0--12-------------------------------|
A|--------------------------------------------------------------------------|
D|--------------------------------------------------------------------------|

e|--------------------------------------------------------------------------|
B|--------------------------------------------------------------------------|
G|--------------------------------------------------------------------------|
D|--14-0-0-12-0-0-11-0-0-12-0-0-14-0-12-------------------------------------|
A|--------------------------------------------------------------------------|
D|--------------------------------------------------------------------------|

e|--------------------------------------------------------------------------|
B|--------------------------------------------------------------------------|
G|--------------------------------------------------------------------------|
D|-----11----12-------12----11----12-------12-------------------------------|
A|--12----12----12-12----12----12----12-12----------------------------------|
D|--------------------------------------------------------------------------|

e|--------------------------------------------------------------------------|
B|--------------------------------------------------------------------------|
G|--------------------------------------------------------------------------|
D|--4-0-----4-0-----4-0---4-5555.---0~--------------------------------------|
A|--4-0-----4-0-----4-0---4-5555.---0~--------------------------------------|
D|--4-0-----4-0-----4-0---4-5555.---0~--------------------------------------|

e|--------------------------------------------------------------------------|
B|--------------------------------------------------------------------------|
G|--------------------------------------------------------------------------|
D|--4-0-----4-0-----4-0---4-5555.---0~--------------------------------------|
A|--4-0-----4-0-----4-0---4-5555.---0~--------------------------------------|
D|--4-0-----4-0-----4-0---4-5555.---0~--------------------------------------|

e|--------------------------------------------------------------------------|
B|--------------------------------------------------------------------------|
G|--------------------------------------------------------------------------|
D|--4-0-----4-0-----4-0---4-5555.---0~--------------------------------------|
A|--4-0-----4-0-----4-0---4-5555.---0~--------------------------------------|
D|--4-0-----4-0-----4-0---4-5555.---0~--------------------------------------|

e|--------------------------------------------------------------------------|
B|--------------------------------------------------------------------------|
G|--------------------------------------------------------------------------|
D|--4-0-----4-0-----4-0---4-5555--------------------------------------------|
A|--4-0-----4-0-----4-0---4-5555--------------------------------------------|
D|--4-0-----4-0-----4-0---4-5555--------------------------------------------|

e|--0c------0c------0c------0c------0c-------0c-----------------------------|
B|--3c------5c------7c------10c-----3c-------5c-----------------------------|
G|--------------------------------------------------------------------------|
D|--------------------------------------------------------------------------|
A|--------------------------------------------------------------------------|
D|--------------------------------------------------------------------------|

e|--------------------------------------------------------------------------|
B|--------------------------------------------------------------------------|
G|--------------------------------------------------------------------------|
D|--0--11-0--12-0--0--12-0--11-0--12-0--0--12-------------------------------|
A|--------------------------------------------------------------------------|
D|--------------------------------------------------------------------------|

e|--------------------------------------------------------------------------|
B|--------------------------------------------------------------------------|
G|--------------------------------------------------------------------------|
D|--14-0-0-12-0-0-11-0-0-12-0-0-14-0-12-------------------------------------|
A|--------------------------------------------------------------------------|
D|--------------------------------------------------------------------------|

e|--------------------------------------------------------------------------|
B|--------------------------------------------------------------------------|
G|--------------------------------------------------------------------------|
D|-----11----12-------12----11----12-------12-------------------------------|
A|--12----12----12-12----12----12----12-12----------------------------------|
D|--------------------------------------------------------------------------|

e|--------------------------------------------------------------------------|
B|--------------------------------------------------------------------------|
G|--9/11-11\9-9/11-11\9-9/11-11\9-------------------------------------------|
D|--x/x--x-\x-x/x--x-\x-x/x--x-\x-------------------------------------------|
A|--7/9--9-\7-7/9--9-\7-7/9--9-\7-------------------------------------------|
D|---------------------------------0-000-0-0--------------------------------|

e|--------------------------------------------------------------------------|
B|--------------------------------------------------------------------------|
G|--9/11-11\9-9/11-11\9-9/11-11\9-------------------------------------------|
D|--x/x--x-\x-x/x--x-\x-x/x--x-\x-------------------------------------------|
A|--7/9--9-\7-7/9--9-\7-7/9--9-\7-------------------------------------------|
D|---------------------------------0-000-0-0--------------------------------|


e|--------------------------------------------------------------------------|
B|--------------------------------------------------------------------------|
G|--11c-----12c-----9c------7c------11c-----12c--12b------------------------|
D|--------------------------------------------------------------------------|
A|--------------------------------------------------------------------------|
D|--------------------------------------------------------------------------|

e|--------------------------------------------------------------------------|
B|--------------------------------------------------------------------------|
G|--2222---2-2-7777---------------------------------------------------------|
D|--0000.--0-0-7777-5555----------------------------------------------------|
A|--0000.--0-0-5555-5555----------------------------------------------------|
D|--0000.--0-0-0000-5555----------------------------------------------------|

e|--------------------------------------------------------------------------|
B|--------------------------------------------------------------------------|
G|--2222---2-2-7777---------------------------------------------------------|
D|--0000.--0-0-7777-5555----------------------------------------------------|
A|--0000.--0-0-5555-5555----------------------------------------------------|
D|--0000.--0-0-0000-5555----------------------------------------------------|

e|--------------------------------------------------------------------------|
B|--------------------------------------------------------------------------|
G|--2222---2-2-7777---------------------------------------------------------|
D|--0000.--0-0-7777-5555----------------------------------------------------|
A|--0000.--0-0-5555-5555----------------------------------------------------|
D|--0000.--0-0-0000-5555----------------------------------------------------|


I think that that is pretty close. I'm still not really sure about James' guitar part in 
chorus but it sounds alright lol

Any corrections, E-mail me!
comments
We did not receive enough feedback on this tab! Please rate:
print report bad tab
1 2 3 4 5
4 comments total. Showing first comments.
0 reply
ThomGreenwood99 wrote on June 25 2006, 08:31 am

Matt... i like the cut of your jib... nice tab...

0 reply
Greenday1989 wrote on July 6 2006, 09:01 pm

great tab, great band and a great song.

0 reply
jude(STF) wrote on February 16 2007, 05:08 pm

nice...

I want to post or [tab]
guest
You may want to rate the tab now too:
select rating
Please do not post tabs as comments. Select "correction" instead!