Oops, an error
Loading. Please wait.

And The Snakes Start To Sing Tab

ver1
ver1

Whole song

Interactive

More versions @911Tabs.com
25,569 views 255 this week
2 commentsread comments
1 2 3 4 5
accurate
x 11
add to favorites launch autoscroll
font size
0
reset
Autoscroll
+/-
esc
set tempo
stop
Contributor
Tuning
C G C F A D
WARNING: You are trying to view
                                    content from Ultimate-Guitar.com
                                    in an unauthorized application,
                                    which is prohibited.

                                    Please use an official Ultimate
                                    Guitar Tabs application for iPhone,
                                    iPad or Android to access legitimate
                                    chords, guitar, bass, and drum tabs
                                    from Ultimate-Guitar.com database.

                                    Type "ultimate guitar tabs" in Apple
                                    App Store's or Android Market's
                                    search to find the application.
BRING ME THE HORIZON

AND THE SNAKES START TO SING

DROP C

TABBED BY andherembrace



0:15

---------------------------------------------------------------------|
---------------------------------------------------------------------|
-------7-------------10---------10-----------7-----5-7-10---7--8-10--|
-----8-----------------12---------12-------8-------7/8-12---8/10-12--|
---------------------------------------------------------------------|
-5-----------5-5/8----------10---------5-----------------------------|


---------------------------------------------------------------------|
---------------------------------------------------------------------|
-------7-------------10---------10-----------7-----5-7-10---7--8-10--|
-----8-----------------12---------12-------8-------7/8-12---8/10-12--|
---------------------------------------------------------------------|
-5-----------5-5/8----------10---------5-----------------------------|





0:38

---)(------)(----13-10----17-17\-----------)(------)(-----------------|
-10------10----------------------10-10---10------10-------11----------|
------12------12------------------------------12------12--------------|
-------------------------------------------------------------13---12~~|
----------------------------------------------------------------------|
----------------------------------------------------------------------|


---)(------)(----13-10----17-17\-----------)(------)(-----------------|
-10------10----------------------10-10---10------10-------11----------|
------12------12------------------------------12------12--------------|
-------------------------------------------------------------13---12~~|
----------------------------------------------------------------------|
----------------------------------------------------------------------|



1:02


-10-10-13-13--10---10----10----10-----10-10-13-13--10---10----10----10-|
-----------------------------------------------------------------------|
-----------------------------------------------------------------------|
-----------------12----12----12-----------------------12----12----12---|
-----------------------------------------------------------------------|
-----------------------------------------------------------------------|


-10-10-13-13--10---10----10----10-----10-10-13-13--10---10----10----10-|
-----------------------------------------------------------------------|
-----------------------------------------------------------------------|
-----------------12----12----12-----------------------12----12----12---|
-----------------------------------------------------------------------|
-----------------------------------------------------------------------|


-10-10-13-13--10---10----10----10-----10-10-13-13--10---10----10----10-|
-----------------------------------------------------------------------|
-----------------------------------------------------------------------|
-----------------12----12----12-----------------------12----12----12---|
-----------------------------------------------------------------------|
-----------------------------------------------------------------------|


-10-10-13-13--10---10----10----10-----10-10-13-13--10---------|
--------------------------------------------------------------|
--------------------------------------------------------------|
-----------------12----12----12-----------------------12------|
---------------------------------------------------------10---|
--------------------------------------------------------------|



1:25

1
--------------------------------------------------------------|
--------------------------------------------------------------|
--------------------------------------------------------------|
--------------------------------------------------------------|
-5--5--5--5-5--5--5--5--5-5-5-8--8--8--8-8-1--1-1-10-10-10-10-|
-5--5--5--5-5--5--5--5--5-5-5/8--8--8--8-8-1--1-1-10-10-10-10-|


---)  (--------)  (--------------------------------------------|
-10----------10-------------------11---------------------------|
--------12----------12---10------------14-14-------------------|
-----------------------------12--------------------------------|
----------------------------------------------12-12~~~---------|
---------------------------------------------------------------|



1
------------------------------------------------------------|
------------------------------------------------------------|
------------------------------------------------------------|
------------------------------------------------------------|
-5--5--5--5-5--5--5--5--5-5-5-8--8--8--8-8-1-1-1-1-1-1-1-1--|
-5--5--5--5-5--5--5--5--5-5-5/8--8--8--8-8-1-1-1-1-1-1-1-1--|


---)  (--------)  (---------------------------------|
-10----------10----------11-------------------------|
--------12----------12------------------------------|
-----------------------------13--------12~~~--------|
----------------------------------------------------|
----------------------------------------------------|




1:48


-10-10-13-13--10---10----10----10-----10-10-13-13--10---10----10----10-|
-----------------------------------------------------------------------|
-----------------------------------------------------------------------|
-----------------12----12----12-----------------------12----12----12---|
-----------------------------------------------------------------------|
-----------------------------------------------------------------------|


-10-10-13-13--10---10----10----10-----10-10-13-13--10---10----10----10-|
-----------------------------------------------------------------------|
-----------------------------------------------------------------------|
-----------------12----12----12-----------------------12----12----12---|
-----------------------------------------------------------------------|
-----------------------------------------------------------------------|



-10-10-13-13--10---10----10----10-----10-10-13-13--10---10----10----10-|
-----------------------------------------------------------------------|
-----------------------------------------------------------------------|
-----------------12----12----12-----------------------12----12----12---|
-----------------------------------------------------------------------|
-----------------------------------------------------------------------|

-10-10-13-13--10---10----10----10-----10-10-13-13--10---10----10----10-|
-----------------------------------------------------------------------|
-----------------------------------------------------------------------|
-----------------12----12----12-----------------------12----12----12---|
-----------------------------------------------------------------------|
-----------------------------------------------------------------------|


-10-10-13-13--10---10----10----10-----10-10-13-13--10---10----10----10-|
-----------------------------------------------------------------------|
-----------------------------------------------------------------------|
-----------------12----12----12-----------------------12----12----12---|
-----------------------------------------------------------------------|
-----------------------------------------------------------------------|


-10-10-13-13--10---10----10----10-----10-10-13-13--10---10----10----10-|
-----------------------------------------------------------------------|
-----------------------------------------------------------------------|
-----------------12----12----12-----------------------12----12----12---|
-----------------------------------------------------------------------|
-----------------------------------------------------------------------|



2:23

L
---)  (--------)  (---------------------17-------------|
-10----------10----------------------------------------|
--------12----------12---10---------14------14-14~-----|
-----------------------------12------------------------|
-------------------------------------------------------|
-------------------------------------------------------|

R
-10-10-13-13--10---10----10----10-----10-10-13-13--10---10----10----10-|
-----------------------------------------------------------------------|
-----------------------------------------------------------------------|
-----------------12----12----12-----------------------12----12----12---|
-----------------------------------------------------------------------|
-----------------------------------------------------------------------|


L
---)  (--------)  (---------------------------------|
-10----------10----------11-------------------------|
--------12----------12------------------------------|
-----------------------------13--------12~~~--------|
----------------------------------------------------|
----------------------------------------------------|

R
-10-10-13-13--10---10----10----10-----10-10-13-13--10---10---|
-------------------------------------------------------------|
-------------------------------------------------------------|
-----------------12----12----12-----------------------12-----|
-------------------------------------------------------------|
-------------------------------------------------------------|



2:34

1
--------------------------------------------------------------|
--------------------------------------------------------------|
--------------------------------------------------------------|
--------------------------------------------------------------|
-5--5--5--5-5--5--5--5--5-5-5-8--8--8--8-8-1--1-1-10-10-10-10-|
-5--5--5--5-5--5--5--5--5-5-5/8--8--8--8-8-1--1-1-10-10-10-10-|


---)  (--------)  (--------------------------------------------|
-10----------10-------------------11---------------------------|
--------12----------12---10------------14-14-------------------|
-----------------------------12--------------------------------|
----------------------------------------------12-12~~~---------|
---------------------------------------------------------------|

1
------------------------------------------------------------|
------------------------------------------------------------|
------------------------------------------------------------|
------------------------------------------------------------|
-5--5--5--5-5--5--5--5--5-5-5-8--8--8--8-8-1-1-1-1-1-1-1-1--|
-5--5--5--5-5--5--5--5--5-5-5/8--8--8--8-8-1-1-1-1-1-1-1-1--|


---)  (--------)  (---------------------------------|
-10----------10----------11-------------------------|
--------12----------12------------------------------|
-----------------------------13--------12~~~--------|
----------------------------------------------------|
----------------------------------------------------|


1
--------------------------------------------------------------|
--------------------------------------------------------------|
--------------------------------------------------------------|
--------------------------------------------------------------|
-5--5--5--5-5--5--5--5--5-5-5-8--8--8--8-8-1--1-1-10-10-10-10-|
-5--5--5--5-5--5--5--5--5-5-5/8--8--8--8-8-1--1-1-10-10-10-10-|


---)  (--------)  (--------------------------------------------|
-10----------10-------------------11---------------------------|
--------12----------12---10------------14-14-------------------|
-----------------------------12--------------------------------|
----------------------------------------------12-12~~~---------|
---------------------------------------------------------------|

1
------------------------------------------------------------|
------------------------------------------------------------|
------------------------------------------------------------|
------------------------------------------------------------|
-5--5--5--5-5--5--5--5--5-5-5-8--8--8--8-8-1-1-1-1-1-1-1-1--|
-5--5--5--5-5--5--5--5--5-5-5/8--8--8--8-8-1-1-1-1-1-1-1-1--|


---)  (--------)  (---------------------------------|
-10----------10----------11-------------------------|
--------12----------12------------------------------|
-----------------------------13--------12~~~--------|
----------------------------------------------------|
----------------------------------------------------|



2:58


SOLO
----------------------------------------------------|
--)()-------------)(--------------------_-----------|
-7---------------7------^--------^-----/ \----------|
-------8/10-7-------10-8-10-7---7-8-7-5-7-5---------|
----------------------------------------------8-5---|
----------------------------------------------------|

RYTHM
-----------------------------------------------------|
-6-----6----6----------------------------------------|
-7-----7----7--7-7-710-10-10--1010--3-3-3-3-8-8-8-8--|
-7-----7----7--7-7-710-10-10--1010--3-3-3-3-8-8-8-8--|
-5-----5----5--5-5-5/8--8--8---8-8--1-1-1-1-6-6-6-6--|
-5-----5----5--5-5-5/8--8--8---8-8--1-1-1-1-6-6-6-6--|



SOLO
-----------------------------------------------------|
-----------------------------------------------------|
------------------------------------7-----7/10-------|
------------------12---------------------------------|
--5/10--------10-----10----5----6------6-------------|
-----------------------------------------------------|

RYTHM
-----------------------------------------------------|
-6-----6----6----------------------------------------|
-7-----7----7--7-7-710-10-10--1010--3-3-3-3-3-3-3-3--|
-7-----7----7--7-7-710-10-10--1010--3-3-3-3-3-3-3-3--|
-5-----5----5--5-5-5/8--8--8---8-8--1-1-1-1-1-1-1-1--|
-5-----5----5--5-5-5/8--8--8---8-8--1-1-1-1-1-1-1-1--|


3:09

SOLO
   )()                  )(                         __
-10-------------------10--------^---------^-------/  \--------|
--------11/13-10-----------13-11-13-10--10-11-10-8-10-8-------|
--------------------------------------------------------10-10-|
--------------------------------------------------------------|
--------------------------------------------------------------|
--------------------------------------------------------------|

RYTHM
-----------------------------------------------------|
-6-----6----6----------------------------------------|
-7-----7----7--7-7-710-10-10--1010--3-3-3-3-8-8-8-8--|
-7-----7----7--7-7-710-10-10--1010--3-3-3-3-8-8-8-8--|
-5-----5----5--5-5-5/8--8--8---8-8--1-1-1-1-6-6-6-6--|
-5-----5----5--5-5-5/8--8--8---8-8--1-1-1-1-6-6-6-6--|



SOLO
--------------------------------------------------------|
-----------------15-----------------------13------------|
-10/12------/12------12--------------------------14~~~~-|
---------------------------------------12----12---------|
--------------------------------------------------------|
--------------------------------------------------------|

RYTHM
-----------------------------------------------------|
-6-----6----6----------------------------------------|
-7-----7----7--7-7-710-10-10--1010--3-3-3-3-3-3-3-3--|
-7-----7----7--7-7-710-10-10--1010--3-3-3-3-3-3-3-3--|
-5-----5----5--5-5-5/8--8--8---8-8--1-1-1-1-1-1-1-1--|
-5-----5----5--5-5-5/8--8--8---8-8--1-1-1-1-1-1-1-1--|



3:22

1
---------------------------------------------------------------|
---------------------------------------------------------------|
---------)(---------)(------------)(---------------------------|
-------12---------12------------12-----------------------------|
-10-10--------10----------13-13-------10/13-13-13-13\10-10-10--|
---------------------------------------------------------------|

2
---------------------------------------------------------------|
---------------------------------------------------------------|
---------------------------------------------------------------|
---------------------------------------------------------------|
---------------------------------------------------------------|
---------------------------------------------------------------|


1
---------------------------------------------------------------|
---------------------------------------------------------------|
---------)(---------)(------------)(---------------------------|
-------12---------12------------12-----------------------------|
-10-10--------10----------13-13-------10/13-13-13-13/16-16-16--|
---------------------------------------------------------------|

2
---------------------------------------------------------------|
-11------------------------------------------------------------|
---------------------------------------------------------------|
---------------------------------------------------------------|
---------------------------------------------------------------|
---------------------------------------------------------------|


1
---------------------------------------------------------------|
---------------------------------------------------------------|
---------)(---------)(------------)(---------------------------|
-------12---------12------------12-----------------------------|
-10-10--------10----------13-13-------10/13-13-13-13\10-10-10--|
---------------------------------------------------------------|
2
---------------------------------------------------------------|
-11-----------------------10-----------------------------------|
---------------------------------------------------------------|
---------------------------------------------------------------|
---------------------------------------------------------------|
---------------------------------------------------------------|


1
---------------------------------------------------------------|
---------------------------------------------------------------|
---------)(---------)(------------)(---------------------------|
-------12---------12------------12-----------------------------|
-10-10--------10----------13-13-------10/13-13-13-13/16-16-16--|
---------------------------------------------------------------|
2
---------------------------------------------------------------|
-11-----------------------10-----------------------------------|
---------------------------------------------------------------|
---------------------------------------------------------------|
---------------------------------------------------------------|
---------------------------------------------------------------|


1
---------------------------------------------------------------|
---------------------------------------------------------------|
---------)(---------)(------------)(---------------------------|
-------12---------12------------12-----------------------------|
-10-10--------10----------13-13-------10/13-13-13-13\10-10-10--|
---------------------------------------------------------------|
2
---------------------------------------------------------------|
-11-----------------------10-----------------------------------|
---------------------------------------------------------------|
---------------------------------------------------------------|
---------------------------------------------------------------|
---------------------------------------------------------------|


1
---------------------------------------------------------------|
---------------------------------------------------------------|
---------)(---------)(------------)(---------------------------|
-------12---------12------------12-----------------------------|
-10-10--------10----------13-13-------10/13-13-13-13/16-16-16--|
---------------------------------------------------------------|
2
---------------------------------------------------------------|
-11-----------------------10-----------------------------------|
---------------------------------------------------------------|
---------------------------------------------------------------|
---------------------------------------------------------------|
---------------------------------------------------------------|

1
---------------------------------------------------------------|
---------------------------------------------------------------|
---------)(---------)(------------)(---------------------------|
-------12---------12------------12-----------------------------|
-10-10--------10----------13-13-------10/13-13-13-13\10-10-10--|
---------------------------------------------------------------|
2
---------------------------------------------------------------|
-11-----------------------10-----------------------------------|
---------------------------------------------------------------|
---------------------------------------------------------------|
---------------------------------------------------------------|
---------------------------------------------------------------|


1
---------------------------------------------------------------|
---------------------------------------------------------------|
---------)(---------)(------------)(---------------------------|
-------12---------12------------12-----------------------------|
-10-10--------10----------13-13-------10/13-13-13-13/16-16-16--|
---------------------------------------------------------------|

2
---------------------------------------------------------------|
-11-----------------------10-----------------------------------|
---------------------------------------------------------------|
---------------------------------------------------------------|
---------------------------------------------------------------|
---------------------------------------------------------------|


1
---------------------------------------------------------------|
---------------------------------------------------------------|
---------------------------------------------------------------|
---------------------------------------------------------------|
---------------------------------------------------------------|
---------------------------------------------------------------|
2
---------------------------------------------------------------|
-11-----------------------10-----------------------------------|
---------------------------------------------------------------|
---------------------------------------------------------------|
---------------------------------------------------------------|
---------------------------------------------------------------|


4:08

--------------------------------------------------------------|
--------------------------------------------------------------|
--------------------------------------------------------------|
--------------------------------------------------------------|
-5--5--5--5-5--5--5--5--5-5-5-8--8--8--8-8-1--1-1-10-10-10-10-|
-5--5--5--5-5--5--5--5--5-5-5/8--8--8--8-8-1--1-1-10-10-10-10-|

------------------------------------------------------------|
------------------------------------------------------------|
------------------------------------------------------------|
------------------------------------------------------------|
-5--5--5--5-5--5--5--5--5-5-5-8--8--8--8-8-1-1-1-1-1-1-1-1--|
-5--5--5--5-5--5--5--5--5-5-5/8--8--8--8-8-1-1-1-1-1-1-1-1--|



--------------------------------------------------------------|
--------------------------------------------------------------|
--------------------------------------------------------------|
--------------------------------------------------------------|
-5--5--5--5-5--5--5--5--5-5-5-8--8--8--8-8-1--1-1-10-10-10-10-|
-5--5--5--5-5--5--5--5--5-5-5/8--8--8--8-8-1--1-1-10-10-10-10-|

------------------------------------------------------------|
------------------------------------------------------------|
------------------------------------------------------------|
------------------------------------------------------------|
-5--5--5--5-5--5--5--5--5-5-5-8--8--8--8-8-1-1-1-1-1-1-1-1--|
-5--5--5--5-5--5--5--5--5-5-5/8--8--8--8-8-1-1-1-1-1-1-1-1--|



1
---)  (--------)  (-----------)-----------------------------|
-10----------10---------10--10------------------------------|
--------12----------12--------------------------------------|
------------------------------------------------------------|
------------------------------------------------------------|
------------------------------------------------------------|
2
--------------------------------------------------------------|
--------------------------------------------------------------|
--------------------------------------------------------------|
--------------------------------------------------------------|
-5--5--5--5-5--5--5--5--5-5-5-8--8--8--8-8-1--1-1-10-10-10-10-|
-5--5--5--5-5--5--5--5--5-5-5/8--8--8--8-8-1--1-1-10-10-10-10-|


1
---)  (--------)  (-----------)-----------------------------|
-10----------10---------10--10------------------------------|
--------12----------12--------------------------------------|
------------------------------------------------------------|
------------------------------------------------------------|
------------------------------------------------------------|
2
------------------------------------------------------------|
------------------------------------------------------------|
------------------------------------------------------------|
------------------------------------------------------------|
-5--5--5--5-5--5--5--5--5-5-5-8--8--8--8-8-1-1-1-1-1-1-1-1--|
-5--5--5--5-5--5--5--5--5-5-5/8--8--8--8-8-1-1-1-1-1-1-1-1--|



1
---)  (--------)  (-----------)-----------------------------|
-10----------10---------10--10------------------------------|
--------12----------12--------------------------------------|
------------------------------------------------------------|
------------------------------------------------------------|
------------------------------------------------------------|
2
--------------------------------------------------------------|
--------------------------------------------------------------|
--------------------------------------------------------------|
--------------------------------------------------------------|
-5--5--5--5-5--5--5--5--5-5-5-8--8--8--8-8-1--1-1-10-10-10-10-|
-5--5--5--5-5--5--5--5--5-5-5/8--8--8--8-8-1--1-1-10-10-10-10-|


1
---)  (--------)  (-----------)-----------------------------|
-10----------10---------10--10------------------------------|
--------12----------12--------------------------------------|
------------------------------------------------------------|
------------------------------------------------------------|
------------------------------------------------------------|
2
------------------------------------------------------------|
------------------------------------------------------------|
------------------------------------------------------------|
------------------------------------------------------------|
-5--5--5--5-5--5--5--5--5-5-5-8--8--8--8-8-1-1-1-1-1-4------|
-5--5--5--5-5--5--5--5--5-5-5/8--8--8--8-8-1-1-1-1-1-4------|
                                                       |
comments
print report bad tab
2 comments total.
0 reply
mindkiller_ wrote on June 27 2013, 07:04 pm

Not correction but little addiction to this tab. E-Piano part for guitar. Let all notes ring:


d-----------------------------------------------
A---------------------3-------------------------
F----7-----7----7-----------7-----7----7--------
C--------------------------------------------12-
G-----------------------------------------10----
C-5-----------8----1-----5-----------8----10----

My guess this pattern looped through whole song not only in intro.

0 reply
mindkiller_ wrote on June 27 2013, 07:10 pm

No. I've been quick with posting comment. This pattern is only in intro. Sorry for my haste...and english too :)

I want to post or [tab]
guest
You may want to rate the tab now too:
select rating
Please do not post tabs as comments. Select "correction" instead!