Oops, an error
Loading. Please wait.

Braille Tab

ver1
ver1

Whole song

Interactive

More versions @911Tabs.com
56,990 views 60 this week
6 commentsread comments
1 2 3 4 5
excellent!
x 13
add to favorites launch autoscroll
font size
0
reset
Autoscroll
+/-
esc
set tempo
stop
Contributor
WARNING: You are trying to view
                                    content from Ultimate-Guitar.com
                                    in an unauthorized application,
                                    which is prohibited.

                                    Please use an official Ultimate
                                    Guitar Tabs application for iPhone,
                                    iPad or Android to access legitimate
                                    chords, guitar, bass, and drum tabs
                                    from Ultimate-Guitar.com database.

                                    Type "ultimate guitar tabs" in Apple
                                    App Store's or Android Market's
                                    search to find the application.
BRAILLE
As recorded by Bring Me The Horizon
(From the 2006 Album COUNT YOUR BLESSINGS)

Transcribed by Ian B.
        

Words by Oliver Sykes Music by BMTH
Arranged by BMTH

Gtr I (B F# B E G# C#) - 'Untitled'
Gtr II (B F# B E G# C#) - 'Untitled'

  Q=215
 4/4
  Gtr I
  PM----------------------------------|
  |-3-| |-3-| |-3-| |-3-|   |-3-| |-3-|  |--3--|  |--3--|
  E E E E E E E E E E E E   E E E E E E  E  E  E  E  E  E
|-------------------------|-------------------------------|
|-------------------------|-------------------------------|
|-------------------------|-------------------------------|
|-------------------------|-------------------------------|
|-7-7-7-8-8-8-5-5-5-7-7-7-|-7-7-7-8-8-8-12-12-12-10-10-10-|
|-7-7-7-8-8-8-5-5-5-7-7-7-|-7-7-7-8-8-8-------------------|
|
| Gtr II
| PM---------------------------------------------------|
| |-3-| |-3-| |-3-| |-3-|   |-3-| |-3-|  |--3--|  |--3--|
| E E E E E E E E E E E E   E E E E E E  E  E  E  E  E  E
|-------------------------|-------------------------------|
|-------------------------|-------------------------------|
|-------------------------|-------------------------------|
|-------------------------|-------------------------------|
|-7-7-7-8-8-8-5-5-5-7-7-7-|-7-7-7-8-8-8--8--8--8--7--7--7-|
|-7-7-7-8-8-8-5-5-5-7-7-7-|-7-7-7-8-8-8-------------------|


    |-3-|         |-3-|           |-----3-----|
    E E E E E E E E E E   E E E E E  E E E  E E
||----------------------|-----------------------|
||o---------------------|-----------------------|
||----------------------|-----------------------|
||----------------------|----------------8-11-8-|
||o-0-0-0-8---7---0-0-0-|-8---7---7-10-7--------|
||--0-0-0---0---0-0-0-0-|---0---0---------------|
|
|   |-3-|         |-3-|           |-----3-----|
|   E E E E E E E E E E   E E E E E  E E E  E E
||----------------------|-----------------------|
||o---------------------|-----------------------|
||----------------------|-----------------------|
||----------------------|----------------8-11-8-|
||o-0-0-0-8---7---0-0-0-|-8---7---7-10-7--------|
||--0-0-0---0---0-0-0-0-|---0---0---------------|


  |-3-|         |-3-|   |-------------3-------------|
  E E E E E E E E E E   E  E E E  E E E  E E  E  E  E
|---------------------|---------------------------------||
|---------------------|----------------------10-13-10--o||
|---------------------|---------------8-11-8------------||
|---------------------|--------8-11-8-------------------||
|-0-0-0-8---7---0-0-0-|-7-10-7-------------------------o||
|-0-0-0---0---0-0-0-0-|---------------------------------||
|
| |-3-|         |-3-|   |-------------3-------------|
| E E E E E E E E E E   E  E E E  E E E  E E  E  E  E
|---------------------|---------------------------------||
|---------------------|----------------------10-13-10--o||
|---------------------|---------------8-11-8------------||
|---------------------|--------8-11-8-------------------||
|-0-0-0-8---7---0-0-0-|-7-10-7-------------------------o||
|-0-0-0---0---0-0-0-0-|---------------------------------||


      PM|     PM  PM    PM--|   PM-----
    E E E E E E E E   E E E E E E E E
||------------------|-----------------|
||o-----------------|-----------------|
||------------------|-----------------|
||------------------|-----------------|
||o-5-----4-5---8---|-7-------5-------|
||----0-0-----0---0-|---0-0-0---0-0-0-|
|
|     PM|     PM  PM    PM--|   PM-----
|   E E E E E E E E   E E E E E E E E
||------------------|-----------------|
||o-----------------|-----------------|
||------------------|-----------------|
||------------------|-----------------|
||o-5-----4-5---8---|-7-------5-------|
||----0-0-----0---0-|---0-0-0---0-0-0-|


 -------------------------------------|
  |-3-| |-3-| |-3-| |-3-|   |-3-| |-3-|  |--3--|  |--3--|
  E E E E E E E E E E E E   E E E E E E  E  E  E  E  E  E
|-------------------------|--------------------------------||
|-------------------------|-------------------------------o||
|-------------------------|--------------------------------||
|-------------------------|--------------------------------||
|-7-7-7-8-8-8-5-5-5-7-7-7-|-7-7-7-8-8-8-12-12-12-10-10-10-o||
|-7-7-7-8-8-8-5-5-5-7-7-7-|-7-7-7-8-8-8--------------------||
|
|------------------------------------------------------|
| |-3-| |-3-| |-3-| |-3-|   |-3-| |-3-|  |--3--|  |--3--|
| E E E E E E E E E E E E   E E E E E E  E  E  E  E  E  E
|-------------------------|--------------------------------||
|-------------------------|-------------------------------o||
|-------------------------|--------------------------------||
|-------------------------|--------------------------------||
|-7-7-7-8-8-8-5-5-5-7-7-7-|-7-7-7-8-8-8--8--8--8--7--7--7-o||
|-7-7-7-8-8-8-5-5-5-7-7-7-|-7-7-7-8-8-8--------------------||


 6/4
  W            H
|-------------------|
|-------------------|
|-------------------|
|-------------------|
|-------------------|
|-------------------|
|
| W            H
|-------------------|
|-------------------|
|-------------------|
|-------------------|
|-------------------|
|-------------------|


   4/4
     E E E E E E E E   E E E E  E E E E
||-------------------|------------------|
||o------------------|------------------|
||-------------------|------------------|
||-------0-----------|-7-----8----------|
||o-10-7---0-0-0-0-0-|---8-----10---4-5-|
||---------0-0-0-0-0-|-----0------0-----|
|
|    E E E E E E E E   E E E E  E E E E
||-------------------|------------------|
||o------------------|------------------|
||-------------------|------------------|
||-------0-----------|-7-----8----------|
||o-10-7---0-0-0-0-0-|---8-----10---4-5-|
||---------0-0-0-0-0-|-----0------0-----|


                    |----------3----------|
  E E E E E E E E   E E E E E E E E E E E E
|-----------------|-------------------------|
|-----------------|-------------------------|
|-----------------|-------------6-9-6-------|
|-5-7-------------|-------5-7-8-------8-5---|
|-----0-0-0-0-0-0-|-5-7-8-----------------7-|
|-----0-0-0-0-0-0-|-------------------------|
|
|                   |----------3----------|
| E E E E E E E E   E E E E E E E E E E E E
|-----------------|-------------------------|
|-----------------|-------------------------|
|-----------------|-------------6-9-6-------|
|-5-7-------------|-------5-7-8-------8-5---|
|-----0-0-0-0-0-0-|-5-7-8-----------------7-|
|-----0-0-0-0-0-0-|-------------------------|


   E E E E E E E E   E E E E  E E E E
|------------------|------------------|
|------------------|------------------|
|------------------|------------------|
|------0-----------|-7-----8----------|
|-10-7---0-0-0-0-0-|---8-----10---4-5-|
|--------0-0-0-0-0-|-----0------0-----|
|
|  E E E E E E E E   E E E E  E E E E
|------------------|------------------|
|------------------|------------------|
|------------------|------------------|
|------0-----------|-7-----8----------|
|-10-7---0-0-0-0-0-|---8-----10---4-5-|
|--------0-0-0-0-0-|-----0------0-----|


                        |-3-|
  E E E E E E E E   E E E E E E  E  Q
|-----------------|------------------------||
|-----------------|-----------------------o||
|-----------------|------------------------||
|-5-7-------------|-----7-8-7--------------||
|-----0-0-0-0-0-0-|-5-8-------8-10-[7]----o||
|-----0-0-0-0-0-0-|------------------------||
|
|                       |-3-|
| E E E E E E E E   E E E E E E  E  Q
|-----------------|------------------------||
|-----------------|-----------------------o||
|-----------------|------------------------||
|-5-7-------------|-----7-8-7--------------||
|-----0-0-0-0-0-0-|-5-8-------8-10-[7]----o||
|-----0-0-0-0-0-0-|------------------------||


  Q=155
  |-3-| |-3-| |-3-|
  E E E E E E E E E  Q      S   S  S  S  S  S  S  S  S  S  S  S  S S S S
|-----------------------|--17--15----15-------------------------------------|
|-----------------------|---------18----18-17-18-17-15-17-15----------------|
|-----------------------|------------------------------------18-15----------|
|-------------7-8-7-----|---------------------------------------------------|
|-0-----8-----------[7]-|---------------------------------------------------|
|-0-0-0---0-0-----------|---------------------------------------------------|
|
|                           \1
| W                         H.                 Q
|-----------------------|---------------------------------------------------|
|-----------------------|-[15]----------------------------------------------|
|-----------------------|---------------------------------------------------|
|-----------------------|---------------------------------------------------|
|-----------------------|---------------------------------------------------|
|-----------------------|---------------------------------------------------|


    |-3-| |-3-| |-3-|        |-3-| |-3-| |-3-|
    E E E E E E E E E  Q     E E E E E E E E E  Q
||-------------------------|------------------------|
||o------------------------|------------------------|
||-------------------------|------------------------|
||--------------7-8-7------|---------------7---[6]--|
||o-0-----8-----------[7]--|-0-----5-4-5------------|
||--0-0-0---0-0------------|-0-0-0-------0---0------|
|
|   |-3-| |-3-| |-3-|        |-3-| |-3-| |-3-|
|   E E E E E E E E E  Q     E E E E E E E E E  Q
||-------------------------|------------------------|
||o------------------------|------------------------|
||-------------------------|------------------------|
||--------------7-8-7------|---------------7---[6]--|
||o-0-----8-----------[7]--|-0-----5-4-5------------|
||--0-0-0---0-0------------|-0-0-0-------0---0------|


  |-3-| |-3-| |-3-|        |-3-| |-3-| |----3----|
  E E E E E E E E E  Q     E E E E E E E E E E E E    4x
|------------------------|----------------------------||
|------------------------|---------------------------o||
|------------------------|-----------------------6----||
|-------------7-8-7------|-----------------6-5-8------||
|-0-----8-----------[7]--|-0-----5-4-5-5-8-----------o||
|-0-0-0---0-0------------|-0-0-0----------------------||
|
| |-3-| |-3-| |-3-|        |-3-| |-3-| |----3----|
| E E E E E E E E E  Q     E E E E E E E E E E E E    4x
|------------------------|----------------------------||
|------------------------|---------------------------o||
|------------------------|-----------------------6----||
|-------------7-8-7------|-----------------6-5-8------||
|-0-----8-----------[7]--|-0-----5-4-5-5-8-----------o||
|-0-0-0---0-0------------|-0-0-0----------------------||


  W                        W
|------------------------|------------------------|
|------------------------|------------------------|
|------------------------|------------------------|
|------------------------|------------------------|
|------------------------|------------------------|
|------------------------|------------------------|
|
| |-3-| |-3-| |-3-|        |-3-| |-3-| |-3-|
| E E E E E E E E E  Q     E E E E E E E E E  Q
|------------------------|------------------------|
|------------------------|------------------------|
|------------------------|------------------------|
|-------------7-8-7------|---------------7---[6]--|
|-0-----8-----------[7]--|-0-----5-4-5------------|
|-0-0-0---0-0------------|-0-0-0-------0---0------|


  W                        W
|------------------------|---------------------------|
|------------------------|---------------------------|
|------------------------|---------------------------|
|------------------------|---------------------------|
|------------------------|---------------------------|
|------------------------|---------------------------|
|
| |-3-| |-3-| |-3-|        |-3-| |-3-| |----3----|
| E E E E E E E E E  Q     E E E E E E E E E E E E
|------------------------|---------------------------|
|------------------------|---------------------------|
|------------------------|-----------------------6---|
|-------------7-8-7------|-----------------6-5-8-----|
|-0-----8-----------[7]--|-0-----5-4-5-5-8-----------|
|-0-0-0---0-0------------|-0-0-0---------------------|


  |-3-|            |-3-|    |
  E E E Q  Q  Q    E E E Q  E E E Q
|----------------|-------------------|
|----------------|-------------------|
|----------------|-------------------|
|----------------|-------------------|
|-0-0-0----------|-0-0-0----0--------|
|-0-0-0----------|-0-0-0----0--------|
|
| |-3-|            |-3-|    |
| E E E Q  Q  Q    E E E Q  E E E Q
|----------------|-------------------|
|----------------|-------------------|
|----------------|-------------------|
|----------------|-------------------|
|-0-0-0----------|-0-0-0----0--------|
|-0-0-0----------|-0-0-0----0--------|


  |-3-|            |-3-|    |-3-| |-3-|
  E E E Q  Q  Q    E E E Q  E E E E E E
|----------------|-------------------------|
|----------------|-------------------------|
|----------------|-------------------------|
|----------------|-------------------------|
|-0-0-0----------|-0-0-0----0-0-0-0-0-0----|
|-0-0-0----------|-0-0-0----0-0-0-0-0-0----|
|
| |-3-|            |-3-|    |-3-| |-3-|
| E E E Q  Q  Q    E E E Q  E E E E E E
|----------------|-------------------------|
|----------------|-------------------------|
|----------------|-------------------------|
|----------------|-------------------------|
|-0-0-0----------|-0-0-0----0-0-0-0-0-0----|
|-0-0-0----------|-0-0-0----0-0-0-0-0-0----|


    |-3-|            |-3-|    |
    E E E Q  Q  Q    E E E Q  E E E Q
||-----------------|-------------------|
||o----------------|-------------------|
||-----------------|-------------------|
||-----------------|-------------------|
||o-0-0-0----------|-0-0-0----0--------|
||--0-0-0----------|-0-0-0----0--------|
|
|   |-3-|            |-3-|    |
|   E E E Q  Q  Q    E E E Q  E E E Q
||-----------------|-------------------|
||o----------------|-------------------|
||-----------------|-------------------|
||-----------------|-------------------|
||o-0-0-0----------|-0-0-0----0--------|
||--0-0-0----------|-0-0-0----0--------|


  |-3-|            |-3-|    |-3-| |-3-|
  E E E Q  Q  Q    E E E Q  E E E E E E
|----------------|--------------------------||
|----------------|-------------------------o||
|----------------|--------------------------||
|----------------|--------------------------||
|-0-0-0----------|-0-0-0----0-0-0-0-0-0----o||
|-0-0-0----------|-0-0-0----0-0-0-0-0-0-----||
|
| |-3-|            |-3-|    |-3-| |-3-|
| E E E Q  Q  Q    E E E Q  E E E E E E
|----------------|--------------------------||
|----------------|-------------------------o||
|----------------|--------------------------||
|----------------|--------------------------||
|-0-0-0----------|-0-0-0----0-0-0-0-0-0----o||
|-0-0-0----------|-0-0-0----0-0-0-0-0-0-----||


  |-3-| |-3-|
  E E E E E E Q   Q
|----------------------|
|----------------------|
|----------------------|
|-------7-7-7-5--------|
|-0-0-0-8-8-8-7--------|
|-0-0-0----------------|
|
| |-3-| |-3-|
| E E E E E E Q   Q
|----------------------|
|----------------------|
|----------------------|
|-------7-7-7-5--------|
|-0-0-0-8-8-8-7--------|
|-0-0-0----------------|


  |-3-| |-3-| |--3---|  |-3-|    |--------------3--------------|
  E E E E E E E +E  +E  E E E    E  E  E  E  E  E E E E  E  E  E
|-----------------------------|----------------------------------|
|-----------------------------|----------------------------------|
|-----------------------------|----------------------------------|
|-------7-7-7-5-(5)-(5)-------|----------------------------------|
|-0-0-0-8-8-8-7-(7)-(7)-0-0-0-|-12-12-12-10-10-10-8-8-8-10-10-10-|
|-0-0-0-----------------0-0-0-|----------------------------------|
|
| |-3-| |-3-| |--3---|  |-3-|    |--------------3--------------|
| E E E E E E E +E  +E  E E E    E  E  E  E  E  E E E E  E  E  E
|-----------------------------|----------------------------------|
|-----------------------------|----------------------------------|
|-----------------------------|----------------------------------|
|-------7-7-7-5-(5)-(5)-------|-10-10-10--8--8--8-7-7-7--8--8--8-|
|-0-0-0-8-8-8-7-(7)-(7)-0-0-0-|----------------------------------|
|-0-0-0-----------------0-0-0-|----------------------------------|


  |-3-| |-3-| |--3---|  |-3-|    |--------------3--------------|
  E E E E E E E +E  +E  E E E    E  E  E  E  E  E E E E  E  E  E
|-----------------------------|-------------------------------------|
|-----------------------------|-------------------------------------|
|-----------------------------|-------------------------------------|
|-------7-7-7-5-(5)-(5)-------|-------------------------------------|
|-0-0-0-8-8-8-7-(7)-(7)-0-0-0-|-12-12-12-10-10-10-8-8-8-10-10-10----|
|-0-0-0-----------------0-0-0-|-------------------------------------|
|
| |-3-| |-3-| |--3---|  |-3-|    |--------------3--------------|
| E E E E E E E +E  +E  E E E    E  E  E  E  E  E E E E  E  E  E
|-----------------------------|-------------------------------------|
|-----------------------------|-------------------------------------|
|-----------------------------|-------------------------------------|
|-------7-7-7-5-(5)-(5)-------|-10-10-10--8--8--8-7-7-7--8--8--8----|
|-0-0-0-8-8-8-7-(7)-(7)-0-0-0-|-------------------------------------|
|-0-0-0-----------------0-0-0-|-------------------------------------|


  S S S S S S S S S S S S S S S S   S S S S S S S S S S S S S S S S
|---------------------------------|-----------------------------------|
|---------------------------------|-----------------------------------|
|---------------------------------|-----------------------------------|
|---------------------------------|-----------------7-----------------|
|-----------------8---------------|-8---------------------------------|
|-8-8-8-8-8-8-8-8---8-8-8-8-8-8-8-|---8-8-8-8-8-8-8---8-8-8-8-8-8-8---|
|
| S S S S S S S S S S S S S S S S   S S S S S S S S S S S S S S S S
|---------------------------------|-----------------------------------|
|---------------------------------|-----------------------------------|
|---------------------------------|-----------------------------------|
|---------------------------------|-----------------7-----------------|
|-----------------8---------------|-8---------------------------------|
|-8-8-8-8-8-8-8-8---8-8-8-8-8-8-8-|---8-8-8-8-8-8-8---8-8-8-8-8-8-8---|


                                     |--------3--------|
  S S S S S S S S S S S S S S S S    E E E E E  E  E E E  Q
|---------------------------------|----------------------------|
|---------------------------------|----------------------------|
|---------------------------------|-10-9-7-7-9-10-10-9-7-10----|
|---------------------------------|----------------------------|
|-----------------7---------------|----------------------------|
|-7-7-7-7-7-7-7-7---7-7-7-7-7-7-7-|----------------------------|
|
|                                    |--------3--------|
| S S S S S S S S S S S S S S S S    E E E E E  E  E E E  Q
|---------------------------------|----------------------------|
|---------------------------------|----------------------------|
|---------------------------------|----------------------------|
|---------------------------------|----------------------------|
|-----------------7---------------|--8-7-5-5-7--8--8-7-5--8----|
|-7-7-7-7-7-7-7-7---7-7-7-7-7-7-7-|----------------------------|


  |-3-| |-3-| |--3---|  |-3-|    |--------------3--------------|
  E E E E E E E +E  +E  E E E    E  E  E  E  E  E E E E  E  E  E
|-----------------------------|----------------------------------|
|-----------------------------|----------------------------------|
|-----------------------------|----------------------------------|
|-------7-7-7-5-(5)-(5)-------|----------------------------------|
|-0-0-0-8-8-8-7-(7)-(7)-0-0-0-|-12-12-12-10-10-10-8-8-8-10-10-10-|
|-0-0-0-----------------0-0-0-|----------------------------------|
|
| |-3-| |-3-| |--3---|  |-3-|    |--------------3--------------|
| E E E E E E E +E  +E  E E E    E  E  E  E  E  E E E E  E  E  E
|-----------------------------|----------------------------------|
|-----------------------------|----------------------------------|
|-----------------------------|----------------------------------|
|-------7-7-7-5-(5)-(5)-------|-10-10-10--8--8--8-7-7-7--8--8--8-|
|-0-0-0-8-8-8-7-(7)-(7)-0-0-0-|----------------------------------|
|-0-0-0-----------------0-0-0-|----------------------------------|


  |-3-| |-3-| |--3---|  |-3-|    |--------------3--------------|
  E E E E E E E +E  +E  E E E    E  E  E  E  E  E E E E  E  E  E
|-----------------------------|-------------------------------------|
|-----------------------------|-------------------------------------|
|-----------------------------|-------------------------------------|
|-------7-7-7-5-(5)-(5)-------|-------------------------------------|
|-0-0-0-8-8-8-7-(7)-(7)-0-0-0-|-12-12-12-10-10-10-8-8-8-10-10-10----|
|-0-0-0-----------------0-0-0-|-------------------------------------|
|
| |-3-| |-3-| |--3---|  |-3-|    |--------------3--------------|
| E E E E E E E +E  +E  E E E    E  E  E  E  E  E E E E  E  E  E
|-----------------------------|-------------------------------------|
|-----------------------------|-------------------------------------|
|-----------------------------|-------------------------------------|
|-------7-7-7-5-(5)-(5)-------|-10-10-10--8--8--8-7-7-7--8--8--8----|
|-0-0-0-8-8-8-7-(7)-(7)-0-0-0-|-------------------------------------|
|-0-0-0-----------------0-0-0-|-------------------------------------|


   |---------------3----------------|    |------3-------|  |--3--|  |--3--|
   E  E  E  E  E  E  E  E  E  E  E  E    E  E  E  E  E  E  E  E  E  E  E  E
|-17-15----15-------------------------|-------------------------------------|
|-------18----18-17-18-17-15-17-15----|-15----------------------------------|
|----------------------------------18-|----18-15-18-15----15----------------|
|-------------------------------------|----------------19----19-17-19-17-15-|
|-------------------------------------|-------------------------------------|
|-------------------------------------|-------------------------------------|
|
|  |---------------3----------------|    |------3-------|  |--3--|  |--3--|
|  E  E  E  E  E  E  E  E  E  E  E  E    E  E  E  E  E  E  E  E  E  E  E  E
|-17-15----15-------------------------|-------------------------------------|
|-------18----18-17-18-17-15-17-15----|-15----------------------------------|
|----------------------------------18-|----18-15-18-15----15----------------|
|-------------------------------------|----------------19----19-17-19-17-15-|
|-------------------------------------|-------------------------------------|
|-------------------------------------|-------------------------------------|


   |--3--|  |--3--|  |--3--|  |--3--|    |--3--|  |--3--|  |--3--|  |--3--|
   E  E  E  E  E  E  E  E  E  E  E  E    E  E  E  E  E  E  E  E  E  E  E  E
|-15-12----12-------------------------|----------------------------------------|
|-------14----14-11-14-11----11-------|----------------------------------------|
|-------------------------12----12----|-12-------------------------------------|
|----------------------------------14-|----14-11-14-11----11-------------------|
|-------------------------------------|----------------13----13-10-13-10-------|
|-------------------------------------|----------------------------------14----|
|
|  |--3--|  |--3--|  |--3--|  |--3--|    |--3--|  |--3--|  |--3--|  |--3--|
|  E  E  E  E  E  E  E  E  E  E  E  E    E  E  E  E  E  E  E  E  E  E  E  E
|-15-12----12-------------------------|----------------------------------------|
|-------14----14-11-14-11----11-------|----------------------------------------|
|-------------------------12----12----|-12-------------------------------------|
|----------------------------------14-|----14-11-14-11----11-------------------|
|-------------------------------------|----------------13----13-10-13-10-------|
|-------------------------------------|----------------------------------14----|


  Q=215
 6/4
  W            H
|-------------------|
|-------------------|
|-------------------|
|-------------------|
|-------------------|
|-------------------|
|
| W            H
|-------------------|
|-------------------|
|-------------------|
|-------------------|
|-------------------|
|-------------------|


   4/4
     E E E E E E E E   E E E E  E E E E
||-------------------|------------------|
||o------------------|------------------|
||-------------------|------------------|
||-------0-----------|-7-----8----------|
||o-10-7---0-0-0-0-0-|---8-----10---4-5-|
||---------0-0-0-0-0-|-----0------0-----|
|
|    E E E E E E E E   E E E E  E E E E
||-------------------|------------------|
||o------------------|------------------|
||-------------------|------------------|
||-------0-----------|-7-----8----------|
||o-10-7---0-0-0-0-0-|---8-----10---4-5-|
||---------0-0-0-0-0-|-----0------0-----|


                    |----------3----------|
  E E E E E E E E   E E E E E E E E E E E E
|-----------------|-------------------------|
|-----------------|-------------------------|
|-----------------|-------------6-9-6-------|
|-5-7-------------|-------5-7-8-------8-5---|
|-----0-0-0-0-0-0-|-5-7-8-----------------7-|
|-----0-0-0-0-0-0-|-------------------------|
|
|                   |----------3----------|
| E E E E E E E E   E E E E E E E E E E E E
|-----------------|-------------------------|
|-----------------|-------------------------|
|-----------------|-------------6-9-6-------|
|-5-7-------------|-------5-7-8-------8-5---|
|-----0-0-0-0-0-0-|-5-7-8-----------------7-|
|-----0-0-0-0-0-0-|-------------------------|


   E E E E E E E E   E E E E  E E E E
|------------------|------------------|
|------------------|------------------|
|------------------|------------------|
|------0-----------|-7-----8----------|
|-10-7---0-0-0-0-0-|---8-----10---4-5-|
|--------0-0-0-0-0-|-----0------0-----|
|
|  E E E E E E E E   E E E E  E E E E
|------------------|------------------|
|------------------|------------------|
|------------------|------------------|
|------0-----------|-7-----8----------|
|-10-7---0-0-0-0-0-|---8-----10---4-5-|
|--------0-0-0-0-0-|-----0------0-----|


                        |-3-|
  E E E E E E E E   E E E E E E  E  Q
|-----------------|------------------------||
|-----------------|-----------------------o||
|-----------------|------------------------||
|-5-7-------------|-----7-8-7--------------||
|-----0-0-0-0-0-0-|-5-8-------8-10-[7]----o||
|-----0-0-0-0-0-0-|------------------------||
|
|                       |-3-|
| E E E E E E E E   E E E E E E  E  Q
|-----------------|------------------------||
|-----------------|-----------------------o||
|-----------------|------------------------||
|-5-7-------------|-----7-8-7--------------||
|-----0-0-0-0-0-0-|-5-8-------8-10-[7]----o||
|-----0-0-0-0-0-0-|------------------------||


    Q=200
         |-3-| |-3-|
     E E E E E E E E E E   E E E E  E E E E
||-----------------------|------------------|
||o----------------------|------------------|
||-----------------------|------------------|
||-----------------------|-7-----8----------|
||o-10-7-0-0-0-0-0-0-0-0-|---8-----10---4-5-|
||-------0-0-0-0-0-0-0-0-|-----0------0-----|
|
|        |-3-| |-3-|
|    E E E E E E E E E E   W
||-----------------------|------------------|
||o----------------------|------------------|
||-----------------------|------------------|
||-----------------------|------------------|
||o------0-0-0-0-0-0-0-0-|------------------|
||-------0-0-0-0-0-0-0-0-|------------------|


      |-3-| |-3-|       |----------3----------|
  E E E E E E E E E E   E E E E E E E E E E E E
|---------------------|-------------------------|
|---------------------|-------------------------|
|---------------------|-------------6-9-6-------|
|-5-7-----------------|-------5-7-8-------8-5---|
|-----0-0-0-0-0-0-0-0-|-5-7-8-----------------7-|
|-----0-0-0-0-0-0-0-0-|-------------------------|
|
|     |-3-| |-3-|
| E E E E E E E E E E   W
|---------------------|-------------------------|
|---------------------|-------------------------|
|---------------------|-------------------------|
|---------------------|-------------------------|
|-----0-0-0-0-0-0-0-0-|-------------------------|
|-----0-0-0-0-0-0-0-0-|-------------------------|


       |-3-| |-3-|
   E E E E E E E E E E   E E E E  E E E E
|----------------------|------------------|
|----------------------|------------------|
|----------------------|------------------|
|----------------------|-7-----8----------|
|-10-7-0-0-0-0-0-0-0-0-|---8-----10---4-5-|
|------0-0-0-0-0-0-0-0-|-----0------0-----|
|
|      |-3-| |-3-|
|  E E E E E E E E E E   E E E E  E E E E
|----------------------|------------------|
|----------------------|------------------|
|----------------------|------------------|
|----------------------|------------------|
|------0-0-0-0-0-0-0-0-|------------------|
|------0-0-0-0-0-0-0-0-|------------------|


      |-3-| |-3-|           |-3-|
  E E E E E E E E E E   E E E E E E  E  Q
|---------------------|------------------------||
|---------------------|-----------------------o||
|---------------------|------------------------||
|-5-7-----------------|-----7-8-7--------------||
|-----0-0-0-0-0-0-0-0-|-5-8-------8-10-[7]----o||
|-----0-0-0-0-0-0-0-0-|------------------------||
|
|     |-3-| |-3-|
| E E E E E E E E E E   W
|---------------------|------------------------||
|---------------------|-----------------------o||
|---------------------|------------------------||
|---------------------|------------------------||
|-----0-0-0-0-0-0-0-0-|-----------------------o||
|-----0-0-0-0-0-0-0-0-|------------------------||


  Q=215
  W          +W           +W           W
|----------|------------|------------|------|
|----------|------------|------------|------|
|----------|------------|------------|------|
|-0--------|-(0)--------|-(0)--------|------|
|-0--------|-(0)--------|-(0)--------|------|
|-0--------|-(0)--------|-(0)--------|------|
|
| W          +W           +W           W
|----------|------------|------------|------|
|----------|------------|------------|------|
|----------|------------|------------|------|
|-0--------|-(0)--------|-(0)--------|------|
|-0--------|-(0)--------|-(0)--------|------|
|-0--------|-(0)--------|-(0)--------|------|


  TP TP        TP TP TP TP   TP TP        TP TP TP TP
  Q  H.        Q  Q  Q  Q    Q  H.        Q  Q  Q  Q
|------------|-------------|------------|-------------|
|------------|-------------|------------|-------------|
|------------|-------------|------------|-------------|
|------------|-------------|------------|-------------|
|-8--5-------|-8--5--8--5--|-7--4-------|-7--4--7--4--|
|------------|-------------|------------|-------------|
|
| TP TP        TP TP TP TP   TP TP        TP TP TP TP
| Q  H.        Q  Q  Q  Q    Q  H.        Q  Q  Q  Q
|------------|-------------|------------|-------------|
|------------|-------------|------------|-------------|
|------------|-------------|------------|-------------|
|------------|-------------|------------|-------------|
|-8--5-------|-8--5--8--5--|-7--4-------|-7--4--7--4--|
|------------|-------------|------------|-------------|


  TP         TP         TP         TP
  W          W          W          W
|----------|----------|----------|------|
|----------|----------|----------|------|
|----------|----------|----------|------|
|----------|----------|----------|------|
|----------|----------|----------|------|
|-8--------|-8--------|-5--------|-7----|
|
| TP         TP         TP         TP
| W          W          W          W
|----------|----------|----------|------|
|----------|----------|----------|------|
|----------|----------|----------|------|
|----------|----------|----------|------|
|----------|----------|----------|------|
|-8--------|-8--------|-5--------|-7----|


  TP TP        TP TP TP TP   TP TP        TP TP TP TP
  Q  H.        Q  Q  Q  Q    Q  H.        Q  Q  Q  Q
|------------|-------------|------------|-------------|
|------------|-------------|------------|-------------|
|------------|-------------|------------|-------------|
|-7----------|-7-----7-----|-5----------|-5-----5-----|
|----8-------|----8-----8--|----7-------|----7-----7--|
|------------|-------------|------------|-------------|
|
| TP TP        TP TP TP TP   TP TP        TP TP TP TP
| Q  H.        Q  Q  Q  Q    Q  H.        Q  Q  Q  Q
|------------|-------------|------------|-------------|
|------------|-------------|------------|-------------|
|------------|-------------|------------|-------------|
|------------|-------------|------------|-------------|
|-8--5-------|-8--5--8--5--|-7--4-------|-7--4--7--4--|
|------------|-------------|------------|-------------|


  TP         TP         TP         ~
  W          W          W          W
|----------|----------|----------|------|
|----------|----------|----------|------|
|----------|----------|----------|-6----|
|----------|----------|----------|------|
|----------|----------|----------|------|
|-8--------|-8--------|-5--------|------|
|
| TP         TP         TP         TP
| W          W          W          W
|----------|----------|----------|------|
|----------|----------|----------|------|
|----------|----------|----------|------|
|----------|----------|----------|------|
|----------|----------|----------|------|
|-8--------|-8--------|-5--------|-7----|


  TP TP        TP TP TP TP   TP TP        TP TP TP TP
  Q  H.        Q  Q  Q  Q    Q  H.        Q  Q  Q  Q
|------------|-------------|------------|-------------|
|------------|-------------|------------|-------------|
|------------|-------------|------------|-------------|
|------------|-------------|------------|-------------|
|-8--5-------|-8--5--8--5--|-7--4-------|-7--4--7--4--|
|------------|-------------|------------|-------------|
|
| TP TP        TP TP TP TP   TP TP        TP TP TP TP
| Q  H.        Q  Q  Q  Q    Q  H.        Q  Q  Q  Q
|------------|-------------|------------|-------------|
|------------|-------------|------------|-------------|
|------------|-------------|------------|-------------|
|------------|-------------|------------|-------------|
|-8--5-------|-8--5--8--5--|-7--4-------|-7--4--7--4--|
|------------|-------------|------------|-------------|


                                     ~
  W          +W           W          W
|----------|------------|----------|------|
|----------|------------|----------|------|
|----------|------------|----------|------|
|-8--------|-(8)--------|-5--------|-7----|
|-8--------|-(8)--------|-5--------|-7----|
|-8--------|-(8)--------|-5--------|-7----|
|
|                                    TP
| W          +W           W          W
|----------|------------|----------|------|
|----------|------------|----------|------|
|----------|------------|----------|------|
|-8--------|-(8)--------|-5--------|-7----|
|-8--------|-(8)--------|-5--------|-7----|
|-8--------|-(8)--------|-5--------|-7----|


  TP TP        TP TP TP TP   TP TP        TP TP TP TP
  Q  H.        Q  Q  Q  Q    Q  H.        Q  Q  Q  Q
|------------|-------------|------------|-------------|
|------------|-------------|------------|-------------|
|------------|-------------|------------|-------------|
|-7----------|-7-----7-----|-5----------|-5-----5-----|
|----8-------|----8-----8--|----7-------|----7-----7--|
|------------|-------------|------------|-------------|
|
| TP TP        TP TP TP TP   TP TP        TP TP TP TP
| Q  H.        Q  Q  Q  Q    Q  H.        Q  Q  Q  Q
|------------|-------------|------------|-------------|
|------------|-------------|------------|-------------|
|------------|-------------|------------|-------------|
|------------|-------------|------------|-------------|
|-8--5-------|-8--5--8--5--|-7--4-------|-7--4--7--4--|
|------------|-------------|------------|-------------|


  ~~~~~~~~~~~~~~~~~~~~~~~~~~~~~~~~~~~~~~~
  W          +W           W           W
|----------|------------|----------|--------|
|----------|------------|----------|--------|
|----------|------------|----------|-[6]----|
|-8--------|-(8)--------|-5--------|--------|
|----------|------------|----------|--------|
|----------|------------|----------|--------|
|
|                                     TP
| W          +W           W           W
|----------|------------|----------|--------|
|----------|------------|----------|--------|
|----------|------------|----------|--------|
|-8--------|-(8)--------|-5--------|--7-----|
|-8--------|-(8)--------|-5--------|--7-----|
|-8--------|-(8)--------|-5--------|--7-----|


  Q=100
  E E E E H         E E E E Q     Q       E E E E H          E E E E E E E E
|-----------------|---------------------|------------------|-----------------|
|-----------------|---------------------|------------------|-----------------|
|-----------------|---------------------|------------------|-----------------|
|-----------------|---------------------|------------------|-----------------|
|-0-0-0-0-5tr8----|-0-0-0-0-5tr8--6tr9--|-0-0-0-0----------|-1-5-5-5-0-2-2-2-|
|-0-0-0-0---------|-0-0-0-0-------------|-0-0-0-0-8tr11----|-1-5-5-5-0-2-2-2-|
|
| E E E E H         E E E E Q     Q       E E E E H          E E E E E E E E
|-----------------|---------------------|------------------|-----------------|
|-----------------|---------------------|------------------|-----------------|
|-----------------|---------------------|------------------|-----------------|
|-----------------|---------------------|------------------|-----------------|
|-0-0-0-0-5tr8----|-0-0-0-0-5tr8--6tr9--|-0-0-0-0----------|-1-5-5-5-0-2-2-2-|
|-0-0-0-0---------|-0-0-0-0-------------|-0-0-0-0-8tr11----|-1-5-5-5-0-2-2-2-|


  Q=100
  E E E E H          E E E E Q      Q
|------------------|-----------------------|
|------------------|-----------------------|
|------------------|-----------------------|
|------------------|-----------------------|
|-0-0-0-0-5tr8-----|-0-0-0-0-5tr8---6tr9---|
|-0-0-0-0----------|-0-0-0-0---------------|
|
| E E E E H          E E E E Q      Q
|------------------|-----------------------|
|------------------|-----------------------|
|---------7tr10----|---------7tr10--8tr11--|
|------------------|-----------------------|
|-0-0-0-0----------|-0-0-0-0---------------|
|-0-0-0-0----------|-0-0-0-0---------------|


  E E E E H          E E E E E E E E
|------------------|-----------------|
|------------------|-----------------|
|------------------|-----------------|
|------------------|-----------------|
|-0-0-0-0----------|-1-5-5-5-0-2-2-2-|
|-0-0-0-0-8tr11----|-1-5-5-5-0-2-2-2-|
|
| E E E E H          E E E E E E E E
|------------------|-----------------|
|------------------|-----------------|
|------------------|-----------------|
|---------8tr11----|-----------------|
|-0-0-0-0----------|-1-5-5-5-0-2-2-2-|
|-0-0-0-0----------|-1-5-5-5-0-2-2-2-|


  Q=155
  |-3-| |-3-| |-3-|        |-3-| |-3-| |-3-|
  E E E E E E E E E  Q     E E E E E E E E E  Q
|------------------------|------------------------|
|------------------------|------------------------|
|------------------------|------------------------|
|-------------7-8-7------|---------------7---[6]--|
|-0-----8-----------[7]--|-0-----5-4-5------------|
|-0-0-0---0-0------------|-0-0-0-------0---0------|
|
| W                        W
|------------------------|------------------------|
|------------------------|------------------------|
|------------------------|------------------------|
|------------------------|------------------------|
|------------------------|------------------------|
|------------------------|------------------------|


                           |-3-| |-3-|  |------3-------|
  W                        E E E E E E  E  E  E  E  E  E
|------------------------|----------------------------------|
|------------------------|----------------------------------|
|------------------------|-----------------------------6----|
|------------------------|--------------------6--5--8-------|
|------------------------|-0-----5-4-5--5--8----------------|
|------------------------|-0-0-0----------------------------|
|
| |-3-| |-3-| |-3-|        |----3----|  |------3-------|
| E E E E E E E E E  Q     E E E E E E  E  E  E  E  E  E
|------------------------|----------------------------------|
|------------------------|----------------------------------|
|------------------------|-------------------13-------14----|
|-------------7-8-7------|-------------12-15----12-15-------|
|-0-----8-----------[7]--|----------------------------------|
|-0-0-0---0-0------------|----------------------------------|


  |-3-| |-3-| |-3-|         |-3--| |-3-| |-3-|
  E E E E E E E E E  Q      E  E E E E E E E E  Q
|------------------------|--------------------------|
|------------------------|--------------------------|
|------------------------|--------------------------|
|-------------7-8-7------|-----------------7---[6]--|
|-0-----8-----------[7]--|--0------5-4-5------------|
|-0-0-0---0-0------------|--0--0-0-------0---0------|
|
| W                        +W
|------------------------|--------------------------|
|------------------------|--------------------------|
|------------------------|--------------------------|
|-0----------------------|-(0)----------------------|
|-0----------------------|-(0)----------------------|
|-0----------------------|-(0)----------------------|


                           |--3---|   |---3---|   |------3-------|
  W                        E  E   E   E   E   E   E  E  E  E  E  E
|------------------------|-------------------------------------------|
|------------------------|-------------------------------------------|
|------------------------|---------------------------------------6---|
|-0----------------------|------------------------------6--5--8------|
|-0----------------------|-0----------5---4---5---5--8---------------|
|-0----------------------|-0--0---0----------------------------------|
|
| |-3-| |-3-| |-3-|        |--------3---------|   |------3-------|
| E E E E E E E E E  Q     E +E  +E  +E  +E  +E   E  E  E  E  E  E
|------------------------|-------------------------------------------|
|------------------------|-------------------------------------------|
|------------------------|-----------------------------13-------14---|
|-------------7-8-7------|-0-(0)-(0)-(0)-(0)-(0)-12-15----12-15------|
|-0-----8-----------[7]--|-0-(0)-(0)-(0)-(0)-(0)---------------------|
|-0-0-0---0-0------------|-0-(0)-(0)-(0)-(0)-(0)---------------------|


  W
|------|
|------|
|------|
|------|
|------|
|------|
|
| W
|------|
|------|
|------|
|------|
|------|
|------|


    |-3-| |-3-| |-3-|        |-3-| |-3-| |-3-|
    E E E E E E E E E  Q     E E E E E E E E E  Q
||-------------------------|------------------------|
||o------------------------|------------------------|
||-------------------------|------------------------|
||--------------7-8-7------|---------------7---[6]--|
||o-0-----8-----------[7]--|-0-----5-4-5------------|
||--0-0-0---0-0------------|-0-0-0-------0---0------|
|
|   |-3-| |-3-| |-3-|        |-3-| |-3-| |-3-|
|   E E E E E E E E E  Q     E E E E E E E E E  Q
||-------------------------|------------------------|
||o------------------------|------------------------|
||-------------------------|------------------------|
||--------------7-8-7------|---------------7---[6]--|
||o-0-----8-----------[7]--|-0-----5-4-5------------|
||--0-0-0---0-0------------|-0-0-0-------0---0------|


  |-3-| |-3-| |-3-|        |-3-| |-3-|  |------3-------|
  E E E E E E E E E  Q     E E E E E E  E  E  E  E  E  E    4x
|------------------------|----------------------------------||
|------------------------|---------------------------------o||
|------------------------|-----------------------------6----||
|-------------7-8-7------|--------------------6--5--8-------||
|-0-----8-----------[7]--|-0-----5-4-5--5--8---------------o||
|-0-0-0---0-0------------|-0-0-0----------------------------||
|
| |-3-| |-3-| |-3-|        |-3-| |-3-|  |------3-------|
| E E E E E E E E E  Q     E E E E E E  E  E  E  E  E  E    4x
|------------------------|----------------------------------||
|------------------------|---------------------------------o||
|------------------------|-------------------13-------14----||
|-------------7-8-7------|-------------12-15----12-15-------||
|-0-----8-----------[7]--|-0-----5-4-5---------------------o||
|-0-0-0---0-0------------|-0-0-0----------------------------||


  W          W
|----------|------|
|----------|------|
|----------|------|
|----------|------|
|----------|------|
|----------|------|



Duration Legend
---------------
W - whole; H - half; Q - quarter; E - 8th; S - 16th; T - 32nd; X - 64th; a - acciaccatura
+ - note tied to previous; . - note dotted; .. - note double dotted
Uncapitalized letters represent notes that are staccato (1/2 duration)
Irregular groupings are notated above the duration line
Duration letters will always appear directly above the note/fret number it represents the
duration for.  Duration letters with no fret number below them represent rests.  Multi-
bar rests are notated in the form Wxn, where n is the number of bars to rest for.  Low
melody durations appear below the staff

Tablature Legend
----------------
 h   - hammer-on
 p   - pull-off
 b   - bend
 pb  - pre-bend
 r   - bend release (if no number after the r, then release immediately)
 /\  - slide into or out of (from/to "nowhere")
 s   - legato slide
 S   - shift slide
<n> - natural harmonic
[n]  - artificial harmonic
n(n) - tapped harmonic
 ~   - vibrato
 tr  - trill
 T   - tap
 TP  - trem. picking
 PM  - palm muting
\n/  - tremolo bar dip; n = amount to dip
 \n  - tremolo bar down
 n/  - tremolo bar up
/n\  - tremolo bar inverted dip
 =   - hold bend; also acts as connecting device for hammers/pulls
 <> - volume swell (louder/softer)
 x   - on rhythm slash represents muted slash
 o   - on rhythm slash represents single note slash

Misc Legend
-----------
 |  - bar
||  - double bar
||o - repeat start
o|| - repeat end
*|  - double bar (ending)
 :  - bar (freetime)
 $  - Segno
 &  - Coda
Tempo markers - <E/E./Q/Q./H/H.> = BPM(8/16=s8/s16), where s8 = swing 8ths, s16 = swing 16ths

comments
print report bad tab
6 comments total. Showing first comments.
0 reply
confinedforever wrote on May 17 2007, 01:07 pm

i'll rate a 4 because the breakdown is wrong
it goes from 1 to 4 not 1 to 5

0 reply
tanda wrote on August 2 2008, 05:56 pm

this tab is definately almost perfect.
the only few things I found was: the beginning (I'm not 100% sure) should be 7-8-4-5-7-8-12-10 (in context) not 7-8-5-7-7-8-12-10.
and during the chorus where everytime he harmonics the 6 on the upper b string he either slides up a little or bends it a little.
and, like the last guy said, during the trill section, this
|-----------------|
|-----------------|
|-----------------|
|-----------------|
|-1-5-5-5-0-2-2-2-|
|-1-5-5-5-0-2-2-2-|
I believe should be this
|-----------------|
|-----------------|
|-----------------|
|-----------------|
|-1-4-4-4-0-2-2-2-|
|-1-4-4-4-0-2-2-2-|

0 reply
hopespaul wrote on December 16 2008, 02:41 pm

seems like beggining is all wrong, the muted triplet part in intro is

7-8-4-5 not 7-8-5-7

didn't proceed much further since the easiest part sounds completely wrong

I want to post or [tab]
guest
You may want to rate the tab now too:
select rating
Please do not post tabs as comments. Select "correction" instead!