Oops, an error
Loading. Please wait.

Crooked Young Tab

4,908 views 51 this week
no commentswrite comment
1 2 3 4 5
excellent!
x 4
Autoscroll
+/-
esc
set tempo
stop
Contributor
Tuning
C G C F A D
WARNING: You are trying to view
                                    content from Ultimate-Guitar.com
                                    in an unauthorized application,
                                    which is prohibited.

                                    Please use an official Ultimate
                                    Guitar Tabs application for iPhone,
                                    iPad or Android to access legitimate
                                    chords, guitar, bass, and drum tabs
                                    from Ultimate-Guitar.com database.

                                    Type "ultimate guitar tabs" in Apple
                                    App Store's or Android Market's
                                    search to find the application.

BRING ME THE HORIZON

CROOKED YOUNG

TABBED BY andherembrace



drop c



---------------------------------------------------------------------|
---------------------------------------------------------------------|
----------------------------------------------------1212121212121212-|
-15-15151515--14-14141414--15-15151515--14-14141414-1010101010101010-|
-12-12121212--12-12121212--12-12121212--12-12121212-1010101010101010-|
-12-12121212--12-12121212--12-12121212--12-12121212------------------|


---------------------------------------------------------------------|
---------------------------------------------------------------------|
----------------------------------------------------1212121212121212-|
-15-15151515--14-14141414--15-15151515--14-14141410-1010101010101010-|
-10-10101010--10-10101010--10-10101010--10-10101010-1010101010101010-|
-10-10101010--10-10101010--10-10101010--10-10101010------------------|


------------------------------------------|
------------------------------------------|
------------------------------------------|
------------------------------------------|
------------------------------------------|
-7-77777--------888----------888-888------|



0:11

------------------------------------------------------|
------------------------------------------------------|
------------------------------------1212121212121212--|
-15-15---14---1414-15-15---14---14--1010101010101010--|
-12-12---12---1212-12-12---12---12--1010101010101010--|
-12-12---12---1212-12-12---12---12--------------------|


------------------------------------------------------|
------------------------------------------------------|
------------------------------------1212121212121212--|
-15-15---14---1414-15-15---14---14--1010101010101010--|
-10-10---10---1010-10-10---10---10--1010101010101010--|
-10-10---10---1010-10-10---10---10--------------------|


L
-------------------------------------------------------------------|
-------------------------------------------------------------------|
-------------------------------------------------------------------|
-------7------------7-------7--------------------------------------|
---------8--------------8-----8------------------------------------|
--7--------77-8--8---8----8-------7777777---8-8-8----8-8-8-8-8-----|

R
--------------------------------------------------------------------|
--------------------------------------------------------------------|
--------------------------------------------------------------------|
--------------------------------------------------------------------|
--7--7--7--77-8--8--8----88888888-----------------------------------|
--7--7--7--77-8--8--8----88888888-7777777---8-8-8----8-8-8-8-8------|




0:25
           
-----------------------------------------------------------------------|
-----------------------------------------------------------------------|
-----------------------------------------------------------------------|
-----------------------------------------------------------------------|
-----------------------------------------------------------12-12-12-12-|
00--00-0-00--00--00-0-00--00--00--00--00-0-00--00--00-0-00--8--8--8--8-|
     
-----------------------------------------------------------------------|
-----------------------------------------------------------------------|
-----------------------------------------------------------------------|
-----------------------------------------------------------------------|
-----------------------------------------------------------12-12-12-12-|
00--00-0-00--00--00-0-00--00--00--00--00-0-00--00--00-0-00--8--8--8--8-|



0:39

--------------------------------------------------------------|
--------------------------------------------------------------|
--------------------------------------------------------------|
--------------------------------------------------------------|
--------------------------------------------------------------|
00--00-0-00--00--00-0-00--00--00--00--00-0-00--00--00-0-00----|
  |        |   |        |   |   |   |        |   |        |
                                                            L
---------------------------------------------------------------|
---------------------------------------------------------------|
---------------------------------------------------------------|
---------------------------------------------------------------|
------------------------------------------------------------12-|
00--00-0-00--00--00-0-00--00--00--00--00-0-00--00--00-0-00--8--|
  |        |   |        |   |   |   |        |   |        |



0:53

L
-------------------------------------------------------------------------|
-------------------------------------------------------------------------|
-------------------------------------------------------------------------|
-15-15-15-15-15-15-15-15-15-15-15-15-15-15-15-15-14-14-14-14-14-14-14-14-|
-12-12-12-12-12-12-12-12-12-12-12-12-12-12-12-12-12-12-12-12-12-12-12-12-|
-12-12-12-12-12-12-12-12-12-12-12-12-12-12-12-12-12-12-12-12-12-12-12-12-|

R
-------------------------------------------------------------------------|
-------------------------------------------------------------------------|
-------------------------------------------------------------------------|
-------------------------------------------------------------------------|
-12-12-12-12-12-12-12-12-12-12-12-12-12-12-12-12-12-12-12-12-12-12-12-12-|
-12-12-12-12-12-12-12-12-12-12-12-12-12-12-12-12-12-12-12-12-12-12-12-12-|


0:58
L
--------------------------------------------------------------------------|
--------------------------------------------------------------------------|
-9-9-9-910101010----------------------------------------------------------|
-7-7-7-7-8-8-8-8-101010101010101010101010101010-0-12-12-12-12-12-12-12-12-|
-7-7-7-7-8-8-8-8--8-8-8-8-8-8-8-8-8-8-8-8-8-8-8-0-10-10-10-10-10-10-10-10-|
-7-7-7-7-8-8-8-8--8-8-8-8-8-8-8-8-8-8-8-8-8-8-8-0-10-10-10-10-10-10-10-10-|

R
--------------------------------------------------------------------------|
--------------------------------------------------------------------------|
--------------------------------------------------------------------------|
--------------------------------------------------------------------------|
-7-7-7-7-8-8-8-8--8-8-8-8-8-8-8-8-8-8-8-8-8-8-8-0-10-10-10-10-10-10-10-10-|
-7-7-7-7-8-8-8-8--8-8-8-8-8-8-8-8-8-8-8-8-8-8-8-0-10-10-10-10-10-10-10-10-|


1:05
L
------------------------------------------------|
5-5-5-5-6-6-6-6---------------------------------|
2-2-2-2-3-3-3-3---------------------------------|
2-2-2-2-3-3-3-3-8-8-8-8-8-8-8-8-8-8-8-810101010-|
2-2-2-2-3-3-3-3-5-5-5-5-5-5-5-5-5-5-5-5-7-7-7-7-|
----------------5-5-5-5-5-5-5-5-5-5-5-5-7-7-7-7-|

R
--------------------------------------------------|
--------------------------------------------------|
--------------------------------------------------|
--------------------------------------------------|
-----------------5-5-5-5-5-5-5-5-5-5-5-5-7-7-7-7--|
-2-2-2-2-3-3-3-3-5-5-5-5-5-5-5-5-5-5-5-5-7-7-7-7--|


L
----------------------------------|
----------------------------------|
----------------------------------|
12121212121212121212121212121212--|
-8-8-8-8-8-8-8-8-8-8-8-8-8-8-8-8--|
-8-8-8-8-8-8-8-8-8-8-8-8-8-8-8-8--|

R
----------------------------------|
----------------------------------|
----------------------------------|
----------------------------------|
-8-8-8-8-8-8-8-8-8-8-8-8-8-8-8-8--|
-8-8-8-8-8-8-8-8-8-8-8-8-8-8-8-8--|



1:13

L
-------------------------------------------------------------------------|
-------------------------------------------------------------------------|
-------------------------------------------------------------------------|
-15-15-15-15-15-15-15-15-15-15-15-15-15-15-15-15-14-14-14-14-14-14-14-14-|
-12-12-12-12-12-12-12-12-12-12-12-12-12-12-12-12-12-12-12-12-12-12-12-12-|
-12-12-12-12-12-12-12-12-12-12-12-12-12-12-12-12-12-12-12-12-12-12-12-12-|

R
-------------------------------------------------------------------------|
-------------------------------------------------------------------------|
-------------------------------------------------------------------------|
-------------------------------------------------------------------------|
-12-12-12-12-12-12-12-12-12-12-12-12-12-12-12-12-12-12-12-12-12-12-12-12-|
-12-12-12-12-12-12-12-12-12-12-12-12-12-12-12-12-12-12-12-12-12-12-12-12-|


L
--------------------------------------------------------------------------|
--------------------------------------------------------------------------|
-9-9-9-910101010----------------------------------------------------------|
-7-7-7-7-8-8-8-8-101010101010101010101010101010-0-12-12-12-12-12-12-12-12-|
-7-7-7-7-8-8-8-8--8-8-8-8-8-8-8-8-8-8-8-8-8-8-8-0-10-10-10-10-10-10-10-10-|
-7-7-7-7-8-8-8-8--8-8-8-8-8-8-8-8-8-8-8-8-8-8-8-0-10-10-10-10-10-10-10-10-|

R
--------------------------------------------------------------------------|
--------------------------------------------------------------------------|
--------------------------------------------------------------------------|
--------------------------------------------------------------------------|
-7-7-7-7-8-8-8-8--8-8-8-8-8-8-8-8-8-8-8-8-8-8-8-0-10-10-10-10-10-10-10-10-|
-7-7-7-7-8-8-8-8--8-8-8-8-8-8-8-8-8-8-8-8-8-8-8-0-10-10-10-10-10-10-10-10-|


L
------------------------------------------------|
5-5-5-5-6-6-6-6---------------------------------|
2-2-2-2-3-3-3-3---------------------------------|
2-2-2-2-3-3-3-3-8-8-8-8-8-8-8-8-8-8-8-810101010-|
2-2-2-2-3-3-3-3-5-5-5-5-5-5-5-5-5-5-5-5-7-7-7-7-|
----------------5-5-5-5-5-5-5-5-5-5-5-5-7-7-7-7-|

R
--------------------------------------------------|
--------------------------------------------------|
--------------------------------------------------|
--------------------------------------------------|
-----------------5-5-5-5-5-5-5-5-5-5-5-5-7-7-7-7--|
-2-2-2-2-3-3-3-3-5-5-5-5-5-5-5-5-5-5-5-5-7-7-7-7--|


L
----------------------------------|
----------------------------------|
----------------------------------|
12121212121212121212121212121212--|
-8-8-8-8-8-8-8-8-8-8-8-8-8-8-8-8--|
-8-8-8-8-8-8-8-8-8-8-8-8-8-8-8-8--|

R
----------------------------------|
----------------------------------|
----------------------------------|
----------------------------------|
-8-8-8-8-8-8-8-8-8-8-8-8-8-8-8-8--|
-8-8-8-8-8-8-8-8-8-8-8-8-8-8-8-8--|





1:34
                                                    
----------------------------------------------------3H---|
----------------------------------------------------3H---|
----------------------------------------------------3H---|
---------------------------------------------------------|
---------------------------------------------------------|
-00------000000------00-------0000000----0-0-0-0-0-------|
    |           |       |             |  *   *   *

---------------------------------------------------------|
------------------------------------------6--6----6------|
------------------------------------------9----9----9----|
---------------------------------------------------------|
---------------------------------------------------------|
-00------000000------00-------0000000--------------------|
    |           |       |             |  


----------------------------------------------------3H---|
----------------------------------------------------3H---|
----------------------------------------------------3H---|
---------------------------------------------------------|
---------------------------------------------------------|
-00------000000------00-------0000000----0-0-0-0-0-------|
    |           |       |             |  *   *   *

---------------------------------------------------------|
------------------------------------------6--6----6------|
------------------------------------------9----9----9----|
---------------------------------------------------------|
---------------------------------------------------------|
-00------000000------00-------0000000--------------------|
    |           |       |             |  


2:02

L
---------------------------------|
---------------------------------|
---------------------------------|
-8-8-8-8-8-8-8-8-8-8-8-810101010-|
-5-5-5-5-5-5-5-5-5-5-5-5-7-7-7-7-|
-5-5-5-5-5-5-5-5-5-5-5-5-7-7-7-7-|

R
----------------------------------|
----------------------------------|
----------------------------------|
----------------------------------|
-5-5-5-5-5-5-5-5-5-5-5-5-7-7-7-7--|
-5-5-5-5-5-5-5-5-5-5-5-5-7-7-7-7--|


L
----------------------------------|
----------------------------------|
----------------------------------|
12121212121212121212121212121212--|
-8-8-8-8-8-8-8-8-8-8-8-8-8-8-8-8--|
-8-8-8-8-8-8-8-8-8-8-8-8-8-8-8-8--|

R
----------------------------------|
----------------------------------|
----------------------------------|
----------------------------------|
-8-8-8-8-8-8-8-8-8-8-8-8-8-8-8-8--|
-8-8-8-8-8-8-8-8-8-8-8-8-8-8-8-8--|



B
------------------------------------------------------|
------------------------------------------------------|
------------------------------------1212121212121212--|
-15-15---14---1414-15-15---14---14--1010101010101010--|
-12-12---12---1212-12-12---12---12--1010101010101010--|
-12-12---12---1212-12-12---12---12--------------------|


------------------------------------------------------|
------------------------------------------------------|
------------------------------------1212121212121212--|
-15-15---14---1414-15-15---14---14--1010101010101010--|
-10-10---10---1010-10-10---10---10--1010101010101010--|
-10-10---10---1010-10-10---10---10--------------------|


L
---------------------------------------------------------------------------|
---------------------------------------------------------------------------|
------------------------------------9999999---101010--1010101010101010-----|
--------7------------7-------7------7777777----8-8-8---8-8-8-8-8-8-8-8-----|
----------8--------------8-----8----7777777----8-8-8---8-8-8-8-8-8-8-8-----|
--7----------77-8--8---8---8-------------------------------------------0---|

R
---------------------------------------------------------------------------|
---------------------------------------------------------------------------|
---------------------------------------------------------------------------|
---------------------------------------------------------------------------|
--7--7--7--77-8--8--8----88888888------------------------------------------|
--7--7--7--77-8--8--8----88888888---7777777---8-8-8----8-8-8-8-8-8-8-8-0---|




-----------------------------------------------------------------------|
-----------------------------------------------------------------------|
-----------------------------------------------------------------------|
-----------------------------------------------------------------------|
-----------------------------------------------------------12-12-12-12-|
00--00-0-00--00--00-0-00--00--00--00--00-0-00--00--00-0-00--8--8--8--8-|


-----------------------------------------------------------------------|
-----------------------------------------------------------------------|
-----------------------------------------------------------------------|
-----------------------------------------------------------------------|
-----------------------------------------------------------12-12-12-12-|
00--00-0-00--00--00-0-00--00--00--00--00-0-00--00--00-0-00--8--8--8--8-|
I want to post or [tab]
guest
You may want to rate the tab now too:
select rating
Please do not post tabs as comments. Select "correction" instead!