Oops, an error
Loading. Please wait.

Crucify Me Tab

ver1
ver1

Intro

Whole song

Interactive

More versions @911Tabs.com
36,763 views 168 this week
8 commentsread comments
1 2 3 4 5
excellent!
x 7
Autoscroll
+/-
esc
set tempo
stop
Contributor
WARNING: You are trying to view
                                    content from Ultimate-Guitar.com
                                    in an unauthorized application,
                                    which is prohibited.

                                    Please use an official Ultimate
                                    Guitar Tabs application for iPhone,
                                    iPad or Android to access legitimate
                                    chords, guitar, bass, and drum tabs
                                    from Ultimate-Guitar.com database.

                                    Type "ultimate guitar tabs" in Apple
                                    App Store's or Android Market's
                                    search to find the application.
---------------------------------------------------------------
        Crucify Me - Bring Me The Horizon
---------------------------------------------------------------
Tabbed by: Kristyn Lee
Email: spot_the_village_loony_836@hotmail.com

Tuning: Drop C

Intro
D|-----------------------5h6p5----------------------8p6p5-------|
A|-------6-----6-----6-------------6-----6-----6----------6-----|
F|---5/7---7-7---7-7---7-------5/7---7-7---7-7---7--------------|
C|--------------------------------------------------------------|
G|--------------------------------------------------------------|
C|--------------------------------------------------------------|

D|---------------------------------|
A|-------6-------------------------|
F|----------------------7~---------|
C|---7/8----8-8-5-5h8p5------------|
G|---------------------------------|
C|---------------------------------|

0:27      
Lead keeps playing the intro riff
Rythem   
D|----------------------------------------|
A|----------------------------------------|
F|---7-------------------------------7----|   x2
C|---7--(x24)----------------------5------|
G|---5--------------------------5---------|
C|-------------5555777788888888-5---------|

0:41  Both guitars
D|-------------------------------------|
A|--------------------6^---------------|
F|--------------------9^---------------|
C|-------------------------------------|
G|-------------------------0--8-8-8----|
C|---0-10p0-10/12-0--------0--8-8-8----|
0:43
D|----------------------------------|
A|----------------------------------|
F|----7777777777777777^-------------|
C|----xxxxxxxxxxxxxxxx--------------|
G|----5555555555555555^-------------|
C|----------------------------------|

----------------------------------------------------------------------------
0:46
Rythem
D|----------------------------------------|
A|----------------------------------------|
F|----------------------------------------|
C|------(x32)-----(x16)-----(x16)---------|
G|---0---------8---------5----------------|
C|---0---------8---------5----------------|
Lead
D|------------------------------------------|
A|------------------------------------------|
F|---14--------12--------10-------9---------|
C|---x--(x32)--x--(x16)--x--(x8)--x-(x8)----|
G|---12--------10--------8--------7---------|
C|------------------------------------------|
Both Guitars
D|------------------|
A|------------------|
F|------------------|
C|------------------|
G|----5~-----5~-----|
C|----8~-----5~-----|

--------------------------------------------------------------------------
1:00     "i am an ocean, i am the sea..."
Rythem
D|------------------------------------------------------------------|
A|------------------------------------------------------------------|
F|---77-777-7-7-77777-----------------------------------------------|
C|---77-777-7-7-77777-----------------------------------------------|
G|---55-555-5-5-55555--88--888--8--8--88888--55--555--5-5--55555----|
C|---------------------88--888--8--8--88888--55--555--5-5--55555----|
Lead
D|-------------------------------------------------------------------------|
A|-------------------------------------------------------------------------|
F|---77-777-7-7-77777-1212-121212-14-14-1414141414-1010-101010-9-9-99999---|
C|---77-777-7-7-77777-x-x--x-x-x--x--x--x-x-x-x-x--x-x--x-x-x--x-x-xxxxx---|
G|---55-555-5-5-55555-1010-101010-12-12-1212121212-8-8--8-8-8--7-7-77777---|
C|-------------------------------------------------------------------------|
Rythem
D|--------------------------|
A|--------------------------|
F|--------------------------|
C|--------------------------|
G|---8888888888888888-------|
C|---8888888888888888-------|
Lead
D|--------------------------------------|
A|--------------------------------------|
F|---12121212121212121414141414141414---|
C|---x-x-x-x-x-x-x-x-x-x-x-x-x-x-x-x----|
G|---10101010101010101212121212121212---|
C|--------------------------------------|

Repeat all of the above
----------------------------------------------------------------------------
1:19
Rythem
D|----------------------------------------------|
A|----------------------------------------------|
F|----------------------------------------------|
C|----------------------------------------------|
G|---0000000000000000888888888888888855555555---|
C|---0000000000000000888888888888888855555555---|

Lead
D|-----------------------5h6p5----------------------8p6p5-------|
A|-------6-----6-----6-------------6-----6-----6----------6-----|
F|---5/7---7-7---7-7---7-------5/7---7-7---7-7---7--------------|
C|--------------------------------------------------------------|
G|--------------------------------------------------------------|
C|--------------------------------------------------------------|
Both guitars
D|--------------------------|
A|--------------------------|
F|--------------------------|
C|--------------------------|
G|---5555555588888888-------|
C|---5555555588888888-------|
Rythem
D|----------------------------------------------|
A|----------------------------------------------|
F|----------------------------------------------|
C|----------------------------------------------|
G|---0000000000000000888888888888888855555555---|
C|---0000000000000000888888888888888855555555---|

Lead
D|-----------------------5h6p5----------------------8p6p5-------|
A|-------6-----6-----6-------------6-----6-----6----------6-----|
F|---5/7---7-7---7-7---7-------5/7---7-7---7-7---7--------------|
C|--------------------------------------------------------------|
G|--------------------------------------------------------------|
C|--------------------------------------------------------------|
Both guitars      (11's)
D|--------------------------------|
A|--------------------------------|
F|--------------------------------|
C|--------------------------------|
G|---55555555-1111111111111111----|
C|---55555555-1111111111111111----|

---------------------------------------------------------------------------
1:33            2nd verse
Rythem
D|------------------------------------------------------------------|
A|------------------------------------------------------------------|
F|---77-777-7-7-77777-----------------------------------------------|
C|---77-777-7-7-77777-----------------------------------------------|
G|---55-555-5-5-55555--88--888--8--8--88888--55--555--5-5--55555----|
C|---------------------88--888--8--8--88888--55--555--5-5--55555----|
Lead
D|-------------------------------------------------------------------------|
A|-------------------------------------------------------------------------|
F|---77-777-7-7-77777-1212-121212-14-14-1414141414-1010-101010-9-9-99999---|
C|---77-777-7-7-77777-x-x--x-x-x--x--x--x-x-x-x-x--x-x--x-x-x--x-x-xxxxx---|
G|---55-555-5-5-55555-1010-101010-12-12-1212121212-8-8--8-8-8--7-7-77777---|
C|-------------------------------------------------------------------------|
Rythem
D|--------------------------|
A|--------------------------|
F|--------------------------|
C|--------------------------|
G|---8888888888888888-------|
C|---8888888888888888-------|
Lead
D|--------------------------------------|
A|--------------------------------------|
F|---12121212121212121414141414141414---|
C|---x-x-x-x-x-x-x-x-x-x-x-x-x-x-x-x----|
G|---10101010101010101212121212121212---|
C|--------------------------------------|

---------------------------------------------------------------------------
1:42
D|----------------------------------------------|
A|----------------------------------------------|
F|----------------------------------------------|
C|----------------------------------------12----|
G|----------------------------------------12----|
C|---12-(x16)--8-(x16)--5-(x16)--8-(x16---12----|

  "there is a hell believe me i've seen it..."
D|----------------------------------------------|
A|----------------------------------------------|
F|----------------------------------------------|
C|---1212-12-----------1010-1010------1010------|
G|---1212-12-----------1010-1010------1010------|
C|---1212-12-----------1010-1010------1010------|

----------------------------------------------------------------------------
 1:59 - 2:19    No Guitar
----------------------------------------------------------------------------
2:20  
Rythem
D|------------------------------------------------------------------|
A|------------------------------------------------------------------|
F|---777-777-777-777-777-777-555-555-------------7777777755555555---|
C|---777-777-777-777-777-777-555-555-------------7777777755555555---|
G|---555-555-555-555-555-555-333-333---5~---5~---5555555533333333---|
C|-------------------------------------8~---5~----------------------|
Lead
     t     t   t    t   t   t    t    t     t     t
D|---17----10--13-------13--12--10----------12----13----|
A|------------------10----------------10----------------|
F|------------------------------------------------------|
C|------------------------------------------------------|
G|------------------------------------------------------|
C|------------------------------------------------------|
Rythem
D|-----------------------------------------------------------------|
A|-----------------------------------------------------------------|
F|---777-777-777-777-555-555-555-555------------555-555-555-555----|
C|---777-777-777-777-555-555-555-555------------555-555-555-555----|
G|---555-555-555-555-333-333-333-333--5~---5~---333-333-333-333----|
C|------------------------------------8~---5~----------------------|
Lead 
     t     t   t   t     t     t     t     t     t
D|---17----10--13--18----20----12----13----15-----------|
A|-----------------------------------------------13-----|
F|------------------------------------------------------|
C|------------------------------------------------------|
G|------------------------------------------------------|
C|------------------------------------------------------|
     
       Play the above section x2
---------------------------------------------------------------------------
2:57
Both Guitars
D|-------------------------------------------|
A|-------------------------------------------|
F|-------------------------------------------|
C|---------------------77777777-55555555-----|
G|---55555555-55555555-55555555-33333333-----|
C|---88888888-55555555-----------------------|

D|--------------------------------------|
A|--------------------------------------|
F|--------------------------------------|
C|---------------------7-7-7-7-5-5-5----|
G|---55555555-55555555-5-5-5-5-3-3-3----|
C|---88888888-55555555------------------|

---------------------------------------------------------------------------
3:06
Lead repeats the intro riff
Rythem   
D|----------------------------------------|
A|----------------------------------------|
F|---7-------------------------------7----|   x2
C|---7--(x24)----------------------5------|
G|---5--------------------------5---------|
C|-------------5555777788888888-5---------|

---------------------------------------------------------------------------
3:23
Rythem
D|--------------------|
A|--------------------|
F|---7----------------|
C|---x--(x64)---------|
G|---5----------------|
C|--------------------|
Lead
D|----------------------------|
A|----------------------------|
F|----------------------------|
C|----------------------------|
G|---0----00-0----0000---0----|
C|---0----00-0----0000---0----|

3:32
Both guitars
D|-----------------------------------|
A|-----------------------------------|
F|-----------------------------------|   
C|-----------------------------------|
G|---0-----00-0----00-00---00--------|
C|---0-----00-0----00-00---00--------|

----------------------------------------------------------------------------
3:41
Rythem
D|-------------------------------------------------|
A|-------------------------------------------------|
F|-------------------------------------------------|   
C|-------------------------------------------------|
G|---0000000000000000-5555555555555555-12121212----|
C|---0000000000000000-5555555555555555-12121212----|

Lead
D|-----------------------------------------------------------------|
A|-----------------------------------------------------------------|
F|---7777777777777777-10101010101010101010101010101010-12121212----| 
C|---xxxxxxxxxxxxxxxx-x-x-x-x-x-x-x-x-x-x-x-x-x-x-x-x--x-x-x-x-----|
G|---5555555555555555-8-8-8-8-8-8-8-8-8-8-8-8-8-8-8-8--10101010----|
C|-----------------------------------------------------------------|

----------------------------------------------------------------------------
3:47
Both Guitars
D|-----------------------------|
A|-----------------------------|
F|-----------------------------|   
C|-----------------------------|
G|---0----00-0-----0000--00----|
C|---0----00-0-----0000--00----|

---------------------------------------------------------------------------
3:56
Rythem
D|--------------------------------|
A|--------------------------------|
F|--------------------------------|   
C|--------------------------------|
G|---0--(x16)--5-(x16)-8-(x4)-----|
C|---0---------5-------8----------|
Lead
D|--------------------------------|
A|--------------------------------|
F|---7-------10-------12----------|   
C|---x-(x16)-x--(x16)-x--(x4)-----|
G|---5-------8--------10----------|
C|--------------------------------|

----------------------------------------------------------------------------
4:10
Both guitars
D|----------------------------------------|
A|----------------------------------------|
F|---7-------5----------------------------|   
C|---x-(x16)-x-(x16)----------------------|
G|---5-------3-------5-(x16)--8-(x16)-----|
C|-------------------5--------8-----------|
Both guitars
D|---------------------------------------------------------------------|
A|---------------------------------------------------------------------|
F|---------------------------------------------------------------------|   
C|---777-777-777-777-555-555-555-555-----------------------------------|
G|---555-555-555-555-333-333-333-333-555-555-555-555-888-888-888-888---|
C|-----------------------------------555-555-555-555-888-888-888-888---|

----------------------------------------------------------------------------
4:20 - 4:31   No Guitar
----------------------------------------------------------------------------
4:31
Rythem
D|----------------------------------------------------|
A|----------------------------------------------------|
F|----------------------------------------------------|   
C|-------------------7777777777777777-55-55-55-55-----|
G|---555-555-555-555-5555555555555555-33-33-33-33-----|
C|---555-555-555-555----------------------------------|

Lead Repeats that tremolo riff up there. im too lazy to add it here.

Rythem
D|-----------------------------------------------------------------|
A|-----------------------------------------------------------------|
F|-----------------------------------------------------------------|   
C|---777-777-777-777-777-777-555-555-----------7777777775555555----|
G|---555-555-555-555-555-555-333-333--5~---5~--5555555553333333----|
C|------------------------------------8~---5~----------------------|
Rythem keeps playing these chords
D|-------------------------------------------------------|
A|-------------------------------------------------------|
F|-------------------------------------------------------|   
C|-------------------------------------------------------|
G|---888888885555555512121212121212121010101010101010----|
C|---888888885555555512121212121212121010101010101010----|

Acoustic Outro

D|-------0------0--0000--0000------|
A|-------0------0--6666--5555------|
F|-------7------7-77777-55555------|   
C|---888-8-5555-5-77777-55555------|
G|---888-8-5555-5-55555-33333------|
C|---888-8-5555-5------------------|

The End


************************************

| /   slide up
| \   slide down
| h   hammer-on
| p   pull-off
| ~   vibrato
| +   harmonic
| x   Mute note
| b   Bend
| pb  Pre-bend
| br  Bend release
| pbr Pre-bend release
| brb Bend release bend

************************************
comments
print report bad tab
8 comments total. Showing first comments.
+1 reply
cip 123 wrote on September 22 2011, 05:39 pm

pretty sure this is played in C standard i saw him explaining the setlist in guitar world magazine.

0 reply
_hardcoreguitar wrote on February 23 2012, 02:04 pm

they tune B F# B E G# C#

+3 reply
drummersam1 wrote on May 8 2012, 09:07 am

BMTH play in both C G C F A D and A# F A# D# G C. They have never used B F# B E G# C#.

I want to post or [tab]
guest
You may want to rate the tab now too:
select rating
Please do not post tabs as comments. Select "correction" instead!