Oops, an error
Loading. Please wait.

Visions Tab

ver1
ver1

Whole song

Interactive

More versions @911Tabs.com
16,120 views 45 this week
2 commentsread comments
1 2 3 4 5
excellent!
x 3
Autoscroll
+/-
esc
set tempo
stop
Contributor
Difficulty
Tuning
intermediate
A E A D F# B
Hey! There's an official Ultimate Guitar app which is ideal
for learning songs when you're away from computer. Get the app
WARNING: You are trying to view
                                    content from Ultimate-Guitar.com
                                    in an unauthorized application,
                                    which is prohibited.

                                    Please use an official Ultimate
                                    Guitar Tabs application for iPhone,
                                    iPad or Android to access legitimate
                                    chords, guitar, bass, and drum tabs
                                    from Ultimate-Guitar.com database.

                                    Type "ultimate guitar tabs" in Apple
                                    App Store's or Android Market's
                                    search to find the application.
This tab was originally made in Guitar Pro format by "patitoinblood". I just took the 
to transcribe it into the text format. So all the original credit goes to "patitoinblood"

Intro
C|-----------------|
G|-----------------|
D|-----------------|
A|-----------------|
F|-5---------------|
A|---6-0-5-0-0-3-5-|

C|--------------------------------------------------------------------|
G|--------------------------------------------------------------------|
D|--------------------------------------------------------------------|
A|--------------------------------------------------------------------|
F|-------0--0--0-----0--0----0---0--0--0-0-----0--0-----0---0--0--0-0-|
A|-0-0-0-0--0--0---0-0--0--0-0---0--0--0-0---0-0--0---0-0---0--0--0-0-|

C|----------------------|
G|----------------------|
D|----------------------|
A|-12-------------------|
F|----------------------|
A|----13-0-12-0-0-10-12-|

C|--------------------------------------------------------------------|
G|--------------------------------------------------------------------|
D|--------------------------------------------------------------------|
A|--------------------------------------------------------------------|
F|-------0--0--0-----0--0----0---0--0--0-0-----0--0-----0---0--0--0-0-|
A|-0-0-0-0--0--0---0-0--0--0-0---0--0--0-0---0-0--0---0-0---0--0--0-0-|

C|----------------------|
G|----------------------|
D|----------------------|
A|-12-------------------|
F|----------------------|
A|----13-0-12-0-0-10-12-|

C|--------------------------------------------------------------------|
G|--------------------------------------------------------------------|
D|--------------------------------------------------------------------|
A|--------------------------------------------------------------------|
F|-------0--0--0-----0--0----0---0--0--0-0-----0--0-----0---0--0--0-0-|
A|-0-0-0-0--0--0---0-0--0--0-0---0--0--0-0---0-0--0---0-0---0--0--0-0-|

C|-----------------|
G|-----------------|
D|-----------------|
A|-----------------|
F|-5---------------|
A|---6-0-5-0-0-3-5-|

C|------------------------------------------------------|
G|------------------------------------------------------|
D|------------------------------------------------------|
A|------------------------------------------------------|
F|----------0-----0----0------0-----0----0------0-----0-|
A|-0-0---0--0--0--0----0---0--0--0--0----0---0--0--0--0-|

C|----------------------|
G|----------------------|
D|----------------------|
A|-12-------------------|
F|----------------------|
A|----13-0-12-0-0-10-12-|


Verse
C|----------------------------------------------------------------------------------|
G|----------------------------------------------------------------------------------|
D|----------------------------------------------------------------------------------|
A|----------------------------------------------------------------------------------|
F|----------------------0---0-----------------------------------0----0---0---0--0-0-|
A|-0-0-0-0-0----0--0----0---0----0-0-0-0-0-0----0-0-0-0-0-0-0-0-0----0---0---0--0-0-|

C|---------------------------------------------------------------------|
G|---------------------------------------------------------------------|
D|---------------------------------------------------------------------|
A|---------------------------------------------------------------------|
F|----------------------0---0-----------------------------------0----0-|
A|-0-0-0-0-0----0--0----0---0----0-0-0-0-0-0----0-0-0-0-0-0-0-0-0----0-|

C|-----------------|
G|-----------------|
D|-----------------|
A|-----------------|
F|-5---------------|
A|---6-0-5-0-0-3-5-|

C|---------------------------------------------------------------------------------|
G|---------------------------------------------------------------------------------|
D|---------------------------------------------------------------------------------|
A|---------------------------------------------------------------------------------|
F|----------------------0---0------------------------------------------------------|
A|-0-0-0-0-0----0--0----0---0----0-0-0-0-0-0--8-8-8-8-5-5-5-5-10-10-10-10-13-13-13-|

C|--------------------------------------------------------------|
G|--------------------------------------------------------------|
D|--------------------------------------------------------------|
A|--------------------------------------------------------------|
F|-0-0----------------------------------------------------------|
A|-0-0--0-12-12-12-12-12-12-12-0-8-8-8-8-8-8-8-0--8-8-8-8-9-8-0-|

C|------------------------------------------------------------------|
G|------------------------------------------------------------------|
D|------------------------------------------------------------------|
A|------------------------------------------------------------------|
F|-0-0--------------------------------------------------------------|
A|-0-0--0-12-12-12-12-12-12-0-8-8-8-8-8-8-8-8--10-10-10-10-13-13-13-|

C|--------------------------------------------------------------|
G|--------------------------------------------------------------|
D|--------------------------------------------------------------|
A|--------------------------------------------------------------|
F|-0-0----------------------------------------------------------|
A|-0-0--0-12-12-12-12-12-12-12-0-8-8-8-8-8-8-8-0--8-8-8-8-9-8-0-|

C|------------------------------------------------------------------------|
G|------------------------------------------------------------------------|
D|------------------------------------------------------------------------|
A|------------------------------------------------------------------------|
F|-0-0--------------------------------------------------------------------|
A|-0-0--0-12-12-12-12-12-12-12-0-8-8-8-8-8-8-8-8--10-10-10-10-13-13-13-13-|


Pre Chorus
C|-------------------|
G|-------------------|
D|-------------------|
A|-8----7----0----10-|
F|-8----5----0----10-|
A|-8----5----0----10-|

C|--------------------------------------------------------------------------------------|
G|--------------------------------------------------------------------------------------|
D|--------------------------------------------------------------------------------------|
A|-8-8-8-8-8-8-8-8---8-8-8-8-8-8-8-8---10-10-10-10-10-10-10-10---10-10-10-10-10-10-10---|
F|-8-8-8-8-8-8-8-8---8-8-8-8-8-8-8-8---10-10-10-10-10-10-10-10---10-10-10-10-10-10-10---|
A|-8-8-8-8-8-8-8-8---8-8-8-8-8-8-8-8---10-10-10-10-10-10-10-10---10-10-10-10-10-10-10-8-|


Chorus
C|------------------------------------------------------------------------|
G|------------------------------------------------------------------------|
D|------------------------------------------------------------------------|
A|------------------------------------------------------------------------|
F|---12-12-12-----------12-12-12-12-----------8-8-8-----------8-8-8-8-----|
A|-8----------8-8-8---8-------------8-8-5---5-------5-5-5---5---------5-5-|

C|------------------------------------------------|
G|------------------------------------------------|
D|------------------------------------------------|
A|------------------------------------------------|
F|-0----0--0--0--0--0--0--0----0--0--0--0--0--0--0|
A|-0----0--0--0--0--0--0--0----0--0--0--0--0--0--0|

C|--------------------------------------------------|
G|--------------------------------------------------|
D|--------------------------------------------------|
A|-10----10-10-10-10-10-10-10-10-10-10-10-10-10-10--|
F|-10----10-10-10-10-10-10-10-10-10-10-10-10-10-10--|
A|-10----10-10-10-10-10-10-10-10-10-10-10-10-10-10-8|

C|------------------------------------------------------------------------|
G|------------------------------------------------------------------------|
D|------------------------------------------------------------------------|
A|------------------------------------------------------------------------|
F|---12-12-12-----------12-12-12-12-----------8-8-8-----------8-8-8-8-----|
A|-8----------8-8-8---8-------------8-8-5---5-------5-5-5---5---------5-5-|

C|------------------------------------------------|
G|------------------------------------------------|
D|------------------------------------------------|
A|------------------------------------------------|
F|-0----0--0--0--0--0--0--0----0--0--0--0--0--0--0|
A|-0----0--0--0--0--0--0--0----0--0--0--0--0--0--0|

C|-------------------------------------------------|
G|-------------------------------------------------|
D|-------------------------------------------------|
A|-10----10-10-10-10-10-10-10-10-10-10-10-10-10-10-|
F|-10----10-10-10-10-10-10-10-10-10-10-10-10-10-10-|
A|-10----10-10-10-10-10-10-10-10-10-10-10-10-10-10-|

C|-------------------------------------------------------------------------------------------|
G|-------------------------------------------------------------------------------------------|
D|-10---10-10-9-9-12-12---12-12-10--10--10-10---10---10-9-9-9-12-12---12-10-10---10-10-10-10-|
A|-------------------------------------------------------------------------------------------|
F|-------------------------------------------------------------------------------------------|
A|-------------------------------------------------------------------------------------------|


verse
C|----------------------------------------------------------------|
G|------------------------------------------------4-4-4-4-4-4-4-4-|
D|------------------------------------------------7-7-7-7-7-7-7-7-|
A|----------------------------------------------------------------|
F|-------0--0--0------0--0------0----0---0---0-0------------------|
A|-0-0-0-0--0--0----0-0--0----0-0----0---0---0-0------------------|

C|------------------------------------------------|
G|------------------------------------------------|
D|------------------------------------------------|
A|------------------------------------------------|
F|-------0--0--0------0--0------0---0---0---0---0-|
A|-0-0-0-0--0--0----0-0--0----0-0---0---0---0---0-|

C|-----------------------------------|
G|-----------------------------------|
D|-----------------------------------|
A|-------------------12--5--7---5--7-|
F|-5-----------------12--5--7---5--7-|
A|---6-0-5-0-0-3-5---12--5--7---5--7-|

C|-----------------------------------------|
G|-----------------------------------------|
D|-------------------------------4-4-4-4-4-|
A|-------------------------------7-7-7-7-7-|
F|-------0--0--0---------0----0------------|
A|-0-0-0-0--0--0---0---0-0----0------------|

C|-----------------------------------------------------------------|
G|-------------------------------------4-4-4-4-4-4-4-4-4-4-4-4-4-4-|
D|-------------------------------------7-7-7-7-7-7-7-7-7-7-7-7-7-7-|
A|-----------------------------------------------------------------|
F|-------0--0--0----------0--0--0----------------------------------|
A|-0-0-0-0--0--0----0-0-0-0--0--0----0-----------------------------|

C|-----------------|
G|-----------------|
D|-----------------|
A|-----------------|
F|-5-------3-------|
A|---6-0-5---0-3-5-|


Breakdown
C|-------------------------------------------------------|
G|-------------------------------------------------------|
D|-------------------------------------------------------|
A|-------------------------------------------------------|
F|-------0---0---0---------------0--0----------0---0---0-|
A|-0-0-0-0---0---0----0-0-0-0----0--0----0-0-0-0---0---0-|

C|-------------------------------------------------------|
G|-------------------------------------------------------|
D|-------------------------------------------------------|
A|-------------------------------------------------------|
F|-------0---0---0---------------0--0----5---------------|
A|-0-0-0-0---0---0----0-0-0-0----0--0------6-0-5-6-6-6-6-|

C|-----------------------------------------------------------------------|
G|-----------------------------------------------------------------------|
D|-----------------------------------------------------------------------|
A|--------------------------------------------------12-------------------|
F|-------0---0---0------0---0-----0----0---0---0-0-----------------------|
A|-0-0-0-0---0---0----0-0---0---0-0----0---0---0-0-----13-0-12-0-0-10-12-|

C|------------------------------------|
G|------------------------------------|
D|------------------------------------|
A|------------------------------------|
F|-------0---0---0------0----0------0-|
A|-0-0-0-0---0---0----0-0----0----0-0-|

C|--------------------------------------|
G|--------------------------------------|
D|--------------------------------------|
A|--------------------------------------|
F|--------------------------------------|
A|-8-8-8-8-5-5-5-5-10-10-10-10-13-13-13-|

Verse
C|----------------------------------------------------------------|
G|----------------------------------------------------------------|
D|----------------------------------------------------------------|
A|----------------------------------------------------------------|
F|-0---0----------------------------------------------------------|
A|-0---0--0-12-12-12-12-12-12-12-0-8-8-8-8-8-8-8-0--8-8-8-8-9-8-0-|

G|------------------------------------------------------------------|
D|------------------------------------------------------------------|
A|------------------------------------------------------------------|
F|-0-0--------------------------------------------------------------|
A|-0-0--0-12-12-12-12-12-12-0-8-8-8-8-8-8-8-8--10-10-10-10-13-13-13-|

C|--------------------------------------------------------------|
G|--------------------------------------------------------------|
D|--------------------------------------------------------------|
A|--------------------------------------------------------------|
F|-0-0----------------------------------------------------------|
A|-0-0--0-12-12-12-12-12-12-12-0-8-8-8-8-8-8-8-0--8-8-8-8-9-8-0-|

C|------------------------------------------------------------------------|
G|------------------------------------------------------------------------|
D|------------------------------------------------------------------------|
A|------------------------------------------------------------------------|
F|-0-0--------------------------------------------------------------------|
A|-0-0--0-12-12-12-12-12-12-12-0-8-8-8-8-8-8-8-8--10-10-10-10-13-13-13-13-|


Pre Chorus
C|-------------------|
G|-------------------|
D|-------------------|
A|-8----7----0----10-|
F|-8----5----0----10-|
A|-8----5----0----10-|


Chorus
C|------------------------------------------|
G|------------------------------------------|
D|------------------------------------------|
A|------------------------------------------|
F|----12-----12----------12-----------8-----|
A|-8-----8-8-------8-8-8----8-8----5----5-5-|

C|-----------------------------------------|
G|-----------------------------------------|
D|-----------------------------------------|
A|-----------------------------------------|
F|---5---5---5-------8-----8---------8-----|
A|-5-5---5---5----0----0-0-----0-0-0---0-0-|

C|---------------------------------------------------------------------------------|
G|---------------------------------------------------------------------------------|
D|---------------------------------------------------------------------------------|
A|---------------------------------------------------------------------------------|
F|-10---10-10-10-10-10-10---10-10-10-10-10-10-10-10------12-----12----------12-----|
A|-10---10-10-10-10-10-10---10-10-10-10-10-10-10-10---8-----8-8-------8-8-8----8-8-|

C|-------------------------------------------------------------|
G|-------------------------------------------------------------|
D|-------------------------------------------------------------|
A|-------------------------------------------------------------|
F|----8------8----------5---5---5------8------8----------8-----|
A|-5-----5-5---5-5----5-5---5---5---0-----0-0------0-0-0---0-0-|

C|--------------------------------------------------|
G|--------------------------------------------------|
D|--------------------------------------------------|
A|--------------------------------------------------|
F|-10---10-10-10-10-10-10---10-10-10-10-10-10-10-10-|
A|-10---10-10-10-10-10-10---10-10-10-10-10-10-10-10-|

C|-----------------------------------|
G|-----------------------------------|
D|-----------------------------------|
A|-----------------------------------|
F|-8---8-8-8-8-8-8---8-8-8-8-8-8-8-8-|
A|-8---8-8-8-8-8-8---8-8-8-8-8-8-8-8-|

C|--------------------------------------------------|
G|--------------------------------------------------|
D|--------------------------------------------------|
A|--------------------------------------------------|
F|-10---10-10-10-10-10-10---10-10-10-10-10-10-10-10-|
A|-10---10-10-10-10-10-10---10-10-10-10-10-10-10-10-|

C|-----------------------------------|
G|-----------------------------------|
D|-----------------------------------|
A|-----------------------------------|
F|-0---0-0-0-0-0-0---0-0-0-0-0-0-0-0-|
A|-0---0-0-0-0-0-0---0-0-0-0-0-0-0-0-|

C|--------------------------------------------------|
G|--------------------------------------------------|
D|--------------------------------------------------|
A|--------------------------------------------------|
F|-10---10-10-10-10-10-10---10-10-10-10-10-10-10-10-|
A|-10---10-10-10-10-10-10---10-10-10-10-10-10-10-10-|

C|-----------------------------------|
G|-----------------------------------|
D|-----------------------------------|
A|-----------------------------------|
F|-8---8-8-8-8-8-8---8-8-8-8-8-8-8-8-|
A|-8---8-8-8-8-8-8---8-8-8-8-8-8-8-8-|

C|--------------------------------------------------|
G|--------------------------------------------------|
D|--------------------------------------------------|
A|--------------------------------------------------|
F|-10---10-10-10-10-10-10---10-10-10-10-10-10-10-10-|
A|-10---10-10-10-10-10-10---10-10-10-10-10-10-10-10-|

C|-----------------------------------|
G|-----------------------------------|
D|-----------------------------------|
A|-----------------------------------|
F|-0---0-0-0-0-0-0---0-0-0-0-0-0-0-0-|
A|-0---0-0-0-0-0-0---0-0-0-0-0-0-0-0-|

C|------------------------------------------------------------------------------|
G|------------------------------------------------------------------------------|
D|------------------------------------------------------------------------------|
A|------------------------------------------------------------------------------|
F|-------12-12-12-----------12-12-12-12-------------8-8-8-----------8-8-8-8-----|
A|-8---8----------8-8---8-8-------------8-8---5---5-------5-5---5-5---------5-5-|

C|-----------------------------------|
G|-----------------------------------|
D|-----------------------------------|
A|-----------------------------------|
F|-0---0-0-0-0-0-0---0-0-0-0-0-0-0-0-|
A|-0---0-0-0-0-0-0---0-0-0-0-0-0-0-0-|

C|--------------------------------------------------|
G|--------------------------------------------------|
D|--------------------------------------------------|
A|--------------------------------------------------|
F|-10---10-10-10-10-10-10---10-10-10-10-10-10-10-10-|
A|-10---10-10-10-10-10-10---10-10-10-10-10-10-10-10-|

C|------------------------------------------------------------------------------|
G|------------------------------------------------------------------------------|
D|------------------------------------------------------------------------------|
A|------------------------------------------------------------------------------|
F|-------12-12-12-----------12-12-12-12-------------8-8-8-----------8-8-8-8-----|
A|-8---8----------8-8---8-8-------------8-8---5---5-------5-5---5-5---------5-5-|

C|-----------------------------------|
G|-----------------------------------|
D|-----------------------------------|
A|-----------------------------------|
F|-0---0-0-0-0-0-0---0-0-0-0-0-0-0-0-|
A|-0---0-0-0-0-0-0---0-0-0-0-0-0-0-0-|

C|--------------------------------------------------|
G|--------------------------------------------------|
D|--------------------------------------------------|
A|--------------------------------------------------|
F|-10---10-10-10-10-10-10---10-10-10-10-10-10-10-10-|
A|-10---10-10-10-10-10-10---10-10-10-10-10-10-10-10-|

C|------------------------------------------------------------------------------|
G|------------------------------------------------------------------------------|
D|------------------------------------------------------------------------------|
A|------------------------------------------------------------------------------|
F|-------12-12-12-----------12-12-12-12-------------8-8-8-----------8-8-8-8-----|
A|-8---8----------8-8---8-8-------------8-8---5---5-------5-5---5-5---------5-5-|

C|-----------------------------------|
G|-----------------------------------|
D|-----------------------------------|
A|-----------------------------------|
F|-0---0-0-0-0-0-0---0-0-0-0-0-0-0-0-|
A|-0---0-0-0-0-0-0---0-0-0-0-0-0-0-0-|

C|--------------------------------------------------|
G|--------------------------------------------------|
D|--------------------------------------------------|
A|--------------------------------------------------|
F|-10---10-10-10-10-10-10---10-10-10-10-10-10-10-10-|
A|-10---10-10-10-10-10-10---10-10-10-10-10-10-10-10-|


Outro
C|--------------------------------------------------------------------|
G|--------------------------------------------------------------------|
D|--------------------------------------------------------------------|
A|--------------------------------------------------------------------|
F|-------0--0--0-----0--0----0---0--0--0-0-----0--0-----0---0--0--0-0-|
A|-0-0-0-0--0--0---0-0--0--0-0---0--0--0-0---0-0--0---0-0---0--0--0-0-|

C|----------------------|
G|----------------------|
D|----------------------|
A|-12-------------------|
F|----------------------|
A|----13-0-12-0-0-10-12-|

C|--------------------------------------------------------------------|
G|--------------------------------------------------------------------|
D|--------------------------------------------------------------------|
A|--------------------------------------------------------------------|
F|-------0--0--0-----0--0----0---0--0--0-0-----0--0-----0---0--0--0-0-|
A|-0-0-0-0--0--0---0-0--0--0-0---0--0--0-0---0-0--0---0-0---0--0--0-0-|

C|--------------------------------------|
G|--------------------------------------|
D|--------------------------------------|
A|--------------------------------------|
F|-7-----------------7----------------0-|
A|---8-0-7-0-0-5-7-----8-0-7-0-0-5-7--0-|
comments
We did not receive enough feedback on this tab! Please rate:
print report bad tab
1 2 3 4 5
2 comments total.
+2 reply
i-Play-Guitar wrote on January 6 2011, 07:19 pm

The song is in Drop A#

0 reply
lewiskac wrote on June 18 2012, 06:34 am

perfect tab man thank you very much..

I want to post or [tab]
guest
You may want to rate the tab now too:
select rating
Please do not post tabs as comments. Select "correction" instead!