Oops, an error
Loading. Please wait.

Who Wants Flowers When Your Dead Nobody Tab

ver1
ver1

Whole song

More versions @911Tabs.com
2,426 views 3 this week
no commentswrite comment
1 2 3 4 5
excellent!
x 4
Autoscroll
+/-
esc
set tempo
stop
Contributor
Difficulty
Tuning
intermediate
B F# B E G# C#
Hey! There's an official Ultimate Guitar app which is ideal
for learning songs when you're away from computer. Get the app
WARNING: You are trying to view
                                    content from Ultimate-Guitar.com
                                    in an unauthorized application,
                                    which is prohibited.

                                    Please use an official Ultimate
                                    Guitar Tabs application for iPhone,
                                    iPad or Android to access legitimate
                                    chords, guitar, bass, and drum tabs
                                    from Ultimate-Guitar.com database.

                                    Type "ultimate guitar tabs" in Apple
                                    App Store's or Android Market's
                                    search to find the application.
 ---------------------------------------------------------------------
   Bring Me The Horizon - Who Wants Flowers When Your Dead? Nobody
 ---------------------------------------------------------------------
                                                    g1994@hotmail.com


Tuning - Drop B                                                           

pm - palm mute
[] - pinch harmonic
h/p - hammer on/pull off
tp - tremolo picked
t - tap
\ - slide downwards
/ - slide upwards




  PM----|        PM----|        PM----|
|--------------|--------------|--------------|------|
|--------------|--------------|--------------|------|
|--------------|--------------|--------------|------|
|--------------|--------------|--------------|------|
|-0-0-0-0-1----|-0-0-0-0-1----|-0-0-0-0-1----|-0----|
|-0-0-0-0-1----|-0-0-0-0-1----|-0-0-0-0-1----|-0----|

| PM----|        PM----|        PM----|
|--------------|--------------|--------------|------|
|--------------|--------------|--------------|------|
|--------------|--------------|--------------|------|
|--------------|--------------|--------------|------|
|-0-0-0-0-1----|-0-0-0-0-1----|-0-0-0-0-1----|-0----|
|-0-0-0-0-1----|-0-0-0-0-1----|-0-0-0-0-1----|-0----|



  PM----|        PM----|        PM----|        PM----|
|--------------|--------------|--------------|--------------|
|--------------|--------------|--------------|--------------|
|--------------|--------------|--------------|--------------|
|--------------|--------------|--------------|--------------|
|-0-0-0-0-1----|-0-0-0-0-1----|-0-0-0-0-1----|-0-0-0-0-1----|
|-0-0-0-0-1----|-0-0-0-0-1----|-0-0-0-0-1----|-0-0-0-0-1----|

| PM----|        PM----|        PM----|        PM----|
|--------------|--------------|--------------|--------------|
|--------------|--------------|--------------|--------------|
|--------------|--------------|--------------|--------------|
|--------------|--------------|--------------|--------------|
|-0-0-0-0-1----|-0-0-0-0-1----|-0-0-0-0-1----|-0-0-0-0-1----|
|-0-0-0-0-1----|-0-0-0-0-1----|-0-0-0-0-1----|-0-0-0-0-1----|



    PM----|             PM----|
||----------16--16-16-|---------16--16-16-|
||o---------20--20-20-|---------20--20-20-|
||--------------------|-------------------|
||--------------------|-------------------|
||o-0-0-0-0-----------|-0-0-0-0-----------|
||--0-0-0-0-----------|-0-0-0-0-----------|
|
|   PM----|             PM----|
||--------------------|-------------------|
||o-------------------|-------------------|
||--------------------|-------------------|
||--------------------|-------------------|
||o-0-0-0-0--1--------|-0-0-0-0--1--------|
||--0-0-0-0--1--------|-0-0-0-0--1--------|


  PM----|             PM----|
|---------16--16-16-|---------17p16p15-17p16p15---||
|---------20--20-20-|----------------------------o||
|-------------------|-----------------------------||
|-------------------|-----------------------------||
|-0-0-0-0-----------|-0-0-0-0--------------------o||
|-0-0-0-0-----------|-0-0-0-0---------------------||
|
| PM----|             PM----|
|-------------------|-----------------------------||
|-------------------|----------------------------o||
|-------------------|-----------------------------||
|-------------------|-----------------------------||
|-0-0-0-0--1--------|-0-0-0-0--1-----------------o||
|-0-0-0-0--1--------|-0-0-0-0--1------------------||



||--------------------------|-------------------------|
||o-------------------------|-------------------------|
||--------------------------|-------------------------|
||--0-0-7p0-5p0-3p0-5p0-3p2-|-0-0-7p0-5p0-3p0-5p0-3p2-|
||o-------------------------|-------------------------|
||--------------------------|-------------------------|
|
|   PM                        PM|
||--------------------------|-------------------------|
||o-------------------------|-------------------------|
||--------------------------|-------------------------|
||--------------------------|-------------------------|
||o-0-----------------------|-0-0---------------------|
||--0-----------------------|-0-0---------------------|


|-------------------------|---------------------------||
|-------------------------|--------------------------o||
|-------------------------|---------------------------||
|-0-0-7p0-5p0-3p0-5p0-3p2-|-0-0-7p0-5p0-3p0-5p0-3-----||
|-------------------------|--------------------------o||
|-------------------------|---------------------------||
|
| PM
|-------------------------|---------------------------||
|-------------------------|--------------------------o||
|-------------------------|---------------------------||
|-------------------------|---------------------------||
|-0-----------------------|-1------------------------o||
|-0-----------------------|-1-------------------------||



    PM----|        PM----|        PM----|
||---------------|--------------|--------------|----------||
||o--------------|--------------|--------------|---------o||
||---------------|--------------|--------------|----------||
||---------------|--------------|--------------|----------||
||o-0-0-0-0-1----|-0-0-0-0-1----|-0-0-0-0-1----|-0-------o||
||--0-0-0-0-1----|-0-0-0-0-1----|-0-0-0-0-1----|-0--------||
|
|   PM----|        PM----|        PM----|
||---------------|--------------|--------------|----------||
||o--------------|--------------|--------------|---------o||
||---------------|--------------|--------------|----------||
||---------------|--------------|--------------|----------||
||o-0-0-0-0-1----|-0-0-0-0-1----|-0-0-0-0-1----|-0-------o||
||--0-0-0-0-1----|-0-0-0-0-1----|-0-0-0-0-1----|-0--------||



    PM----|             PM----|
||----------12--12-12-|---------12--12-12-|
||o---------16--16-16-|---------16--16-16-|
||--------------------|-------------------|
||--------------------|-------------------|
||o-0-0-0-0-----------|-0-0-0-0-----------|
||--0-0-0-0-----------|-0-0-0-0-----------|
|
|   PM----|             PM----|
||----------12--12-12-|---------12--12-12-|
||o---------16--16-16-|---------16--16-16-|
||--------------------|-------------------|
||--------------------|-------------------|
||o-0-0-0-0-----------|-0-0-0-0-----------|
||--0-0-0-0-----------|-0-0-0-0-----------|


  PM----|             PM
|---------12--12-12-|--------------------------||
|---------16--16-16-|----------------10-11-13-o||
|-------------------|--------9-10-12-----------||
|-------------------|---9-10-------------------||
|-0-0-0-0-----------|-0-----------------------o||
|-0-0-0-0-----------|-0------------------------||
|
| PM----|             PM
|---------12--12-12-|--------------------------||
|---------16--16-16-|-------------------------o||
|-------------------|--------------------------||
|-------------------|--------------------------||
|-0-0-0-0-----------|-0-----------------------o||
|-0-0-0-0-----------|-0------------------------||




    PM|     PM|            PM|     PM|
||----------------------------------------------||
||o--------------------------------------------o||
||----------------------------------------------||
||------------------10-8-7-------------7-5------||
||o-0-0-8-7-0-0-8-7--------0-0-8-7-0-0-----8-7-o||
||--0-0-----0-0------------0-0-----0-0----------||


                                  
|-----------------------------------------|
|-----------------------------------------|
|-----------------------------------------|
|--[7]--[7]--[7]--[7]--[7]--[7]--[7]--[7]-|
|-----------------------------------------|
|-----------------------------------------|




    PM|  PM|   PM|  PM|   PM|  PM|
                                                                 4x
||---------------------------------------------------------------||
||o----------------------------------------------------11h13----o||
||-----------------------------------------------10h12-----------||
||-----------------------------------------10h13-----------------||
||o-0-0--0-0---0-0--0-0---0-0--0-0---10h13----------------------o||
||--0-0--0-0---0-0--0-0---0-0--0-0-------------------------------||




  PM|                   PM|
|---------------------------------------------|
|---------------------------------------------|
|---------------------------------------------|
|-----3-3-2-2-5-3-2-3-2-----3-3-2-2-5-3-2-3-2-|
|-0-0-------------------0-0-------------------|
|-0-0-------------------0-0-------------------|
|
| PM|                   PM|
|---------------------------------------------|
|---------------------------------------------|
|---------------------------------------------|
|-----3-3-2-2-5-3-2-3-2-----3-3-2-2-5-3-2-3-2-|
|-0-0-------------------0-0-------------------|
|-0-0-------------------0-0-------------------|




  PM|    TP  TP TP  TP TPTP PM-|    TP  TP TP  TP TPTP
|---------------------------------------------------------||
|--------------------------------------------------------o||
|-------10--10--9--12-10-9---------10--10--9--12-10-9-----||
|---------------------------------------------------------||
|-8--8----------------------8---8------------------------o||
|-8--8----------------------8---8-------------------------||
|
|---------------------------------------------------------||
|--------------------------------------------------------o||
|---------------------------------------------------------||
|---------------------------------------------------------||
|-8-------------------------8----------------------------o||
|-8-------------------------8-----------------------------||



  PM|                        PM|
|-------------------------------------------------------|
|-------------------------------------------------------|
|-----10-10-9-9-12-10-9-10-9-----10-10-9-9-12-10-9-10-9-|
|-------------------------------------------------------|
|-0-0------------------------0-0------------------------|
|-0-0------------------------0-0------------------------|
|
| PM|                        PM|
|-------------------------------------------------------|
|-------------------------------------------------------|
|-------------------------------------------------------|
|------3--3-2-2--5--3-2--3-2------3--3-2-2--5--3-2--3-2-|
|-0-0------------------------0-0------------------------|
|-0-0------------------------0-0------------------------|


         TP  TP TP  TP TPTP         TP  TP TP  TP TPTP
|--------------------------------------------------------|
|--------------------------------------------------------|
|-------10--10-9--12-10-9---------10--10--9--12-10-9----|
|--------------------------------------------------------|
|-8--8----------------------8---8------------------------|
|-8--8----------------------8---8------------------------|
|
|--------------------------------------------------------|
|--------------------------------------------------------|
|--------------------------------------------------------|
|--------------------------------------------------------|
|-8-------------------------8----------------------------|
|-8-------------------------8----------------------------|


|-----------------------------------------------------------------------|
|-----------------------------------------------------------------------|
|-----------------------------------------------------------------------|
|-----------------------------------------------------------------------|
|---8-5-7-5---8-5-7-5----10-7-8-7---10-7-8-7-----12-8-10-8----12-8-10-8-|
|-0---------0----------8----------8-----------10-----------10-----------|


|-----------------------------------------|
|---------------------10h12h13-13-13------|
|-----------7-9-10h12---------------------|
|-8-10-10---------------------------------|
|-----------------------------------------|
|-----------------------------------------|


|-----------------------------------------------------------------------|
|-----------------------------------------------------------------------|
|-----------------------------------------------------------------------|
|-----------------------------------------------------------------------|
|---8-5-7-5---8-5-7-5----10-7-8-7---10-7-8-7-----12-8-10-8----12-8-10-8-|
|-0---------0----------8----------8-----------10-----------10-----------|


|----------------|
|----------------|
|----------------|
|-7--------------|
|-5--10--8--7----|
|----10--8--7----|



    PM----------|     PM----------|     PM----------|
||-----------------------------------------------------|
||o----------------------------------------------------|
||-----------------------------------------------------|
||-----------------------------------------------------|
||o-0-0-0-0-0-0-0-----0-0-0-0-0-0-0-----0-0-0-0-0-0-0--|
||--0-0-0-0-0-0-0-----0-0-0-0-0-0-0-----0-0-0-0-0-0-0--|


   T        T        T        T
|-16p14p11-16p14p11-16p14p11-16p14p11-16p13p10-16p13p10-16p13p10-16p13p10-||
|------------------------------------------------------------------------o||
|-------------------------------------------------------------------------||
|-------------------------------------------------------------------------||
|------------------------------------------------------------------------o||
|-------------------------------------------------------------------------||


                                    8x
||----------------------------------||
||o--------------------------------o||
||----7--/10---9----12---10----9----||
||----x----x---x-----x----x----x----||
||o---5---/8---7----10----8----7---o||
||----------------------------------||
|
|                                   8x
||----------------------------------||
||o--------------------------------o||
||----------------------------------||
||--0-------------0-----------------||
||o-0-------------0----------------o||
||--0-------------0-----------------||


    PM|           PM|           PM     PM|           PM|    PM   PM
||------------------------------------------------------------------------||
||o----------------------------------------------------------------------o||
||------[10]-10p9-----[10]-10p9------------[10]-10p9-----12---10---9h10p9-||
||----------------------------------10------------------------------------||
||o-0-0-----------0-0-----------0------0-0-----------0-0----0----0-------o||
||--0-0-----------0-0-----------0------0-0-----------0-0----0----0--------||

|   PM|           PM----------|   PM|    PM|       PM-------|    PM|
||------------------------------------------------------------------------||
||o----------------------------------------------------------------------o||
||------------------------------------------------------------------------||
||------------------------------------------------------------------------||
||o-0-0-----------0-0---0---0-0---0--0---0---0-----0-0-0--0-0----0-0-----o||
||--0-0-----------0-0---0---0-0---0--0---0---0-----0-0-0--0-0----0-0------||



    PM|  PM------|  PM--------|  PM---------M-|
||------------------------|-----------------------||
||o-----------------------|----------------------o||
||------------------------|-----------------------||
||------------------------|-----------------------||
||o-0-0--0-0-0-0-0--0-0---|-0-0--0-0-0-0-0--0-0--o||
||--0-0--0-0-0-0-0--0-0---|-0-0--0-0-0-0-0--0-0---||
|
|   PM|  PM------|  PM|     PM|  PM------|  PM|
||------------------------|-----------------------||
||o-----------------------|----------------------o||
||------------------------|-----------------------||
||------------------------|-----------------------||
||o-0-0--0-0-0-0-0--0-0---|-0-0--0-0-0-0-0--0-0--o||
||--0-0--0-0-0-0-0--0-0---|-0-0--0-0-0-0-0--0-0---||



  PM----|                 PM------------------------------|
                                                                        4x
|---------------------||--------------------------------------------||-----|
|---------------------||o------------------------------------------o||-----|
|-----------10--10-10-||---------------------------------10--10-10--||-----|
|------------x---x--x-||----------------------------------x---x--x--||-----|
|-0-0-0-0----8---8--8-||o-0-0-0--0-0-0--0-0-0--0-0-0------8---8--8-o||-0---|
|-0-0-0-0-------------||--0-0-0--0-0-0--0-0-0--0-0-0----------------||-0---|


        PM                            TPTP TPTP
                                   3x
||-----------------------------||-------------------||
||o---------------------------o||------------------o||
||-----------------------------||-------------------||
||----5h7--3h5p0-3-3-3---------||-7-8-10-8-7h8p7----||
||o-0------------------5-3-0--o||------------------o||
||--0--------------------------||-------------------||



      TPTP TPTPTP  TP  TPTPTP
                                 4x
||-------------------------------||
||o-----------------------------o||
||--------10-9-7-------7---------||
||----8-7----------8-7---8-7-----||
||o-0------------5--------------o||
||--0------------5---------------||


                                 8x
||-------------------------------||
||o-----------------------------o||
||-------------------------------||
||----5h7--3h5p0-3-3-3-----------||
||o-0------------------5-3-0----o||
||--0----------------------------||



  PM------|         PM------|                 PM------|         PM------|
|-----------------|-------------------------|-----------------|------------|
|-----------------|-------------------------|-----------------|------------|
|-----------10-10-|-------------------[10]\-|-----------10-10-|------------|
|------------x--x-|------------7h8h10-------|------------x--x-|------------|
|-0--0-0--0--8--8-|-0--0-0--0---------------|-0--0-0--0--8--8-|-0--0-0-[8]-|
|-0--0-0--0-------|-0--0-0--0---------------|-0--0-0--0-------|-0--0-0-----|

| PM------|         PM--------------------------------|         PM------|
|-----------------|-------------------------|-----------------|------------|
|-----------------|-------------------------|-----------------|------------|
|-----------10-10-|-------------------------|-----------10-10-|------------|
|------------x--x-|-------------------------|------------x--x-|------------|
|-0--0-0--0--8--8-|-0--0-0--0---------------|-0--0-0--0--8--8-|-0--0-0--0--|
|-0--0-0--0-------|-0--0-0--0---------------|-0--0-0--0-------|-0--0-0--0--|



  PM   PM|  PM            PM   PM|  PM
|-----------------------|-------------------------------|
|----7------------------|----7--------------------------|
|---10--------10--10-10-|---10---------------8h10-[10]\-|
|--------------x---x--x-|-------------7h8h10------------|
|-0----0-0--0--8---8--8-|-0----0-0--0-------------------|
|-0----0-0--0-----------|-0----0-0--0-------------------|
|
| PM   PM|  PM            PM   PM|  PM-------------------
|-----------------------|-------------------------------|
|----7------------------|----7--------------------------|
|---10--------10--10-10-|---10--------------------------|
|--------------x---x--x-|-------------------------------|
|-0----0-0--0--8---8--8-|-0----0-0--0-------------------|
|-0----0-0--0-----------|-0----0-0--0-------------------|



  PM   PM|  PM            PM   PM|  PM
|-----------------------|-------------------|
|----7------------------|----7--------------|
|---10--------10--10-10-|---10--------------|
|--------------x---x--x-|-------------------|
|-0----0-0--0--8---8--8-|-0----0-0--0-[8]---|
|-0----0-0--0-----------|-0----0-0--0-------|
|
|-|    PM|  PM            PM   PM|  PM
|-----------------------|-------------------|
|----7------------------|----7--------------|
|---10--------10--10-10-|---10--------------|
|--------------x---x--x-|-------------------|
|-0----0-0--0--8---8--8-|-0----0-0--0-------|
|-0----0-0--0-----------|-0----0-0--0-------|



  PM   PM|  PM            PM   PM|  PM
|-----------------------|-----------------------|
|----7------------------|----7------------------|
|---10--------10--10-10-|---10--------10--10-10-|
|--------------x---x--x-|--------------x---x--x-|
|-0----0-0--0--8---8--8-|-0----0-0--0--8---8--8-|
|-0----0-0--0-----------|-0----0-0--0-----------|
|
| PM   PM|  PM            PM   PM|  PM
|-----------------------|-----------------------|
|----7------------------|----7------------------|
|---10--------10--10-10-|---10--------10--10-10-|
|--------------x---x--x-|--------------x---x--x-|
|-0----0-0--0--8---8--8-|-0----0-0--0--8---8--8-|
|-0----0-0--0-----------|-0----0-0--0-----------|



  PM   PM|                         PM   PM|  PM
|--------------------------------|------------------------|
|----7---------------------------|----7-------------------|
|---10--------------7-8-10-[10]\-|---10--------10--10-10--|
|------------7-8-10--------------|--------------x---x--x--|
|-0----0-0-----------------------|-0----0-0--0--8---8--8--|
|-0----0-0-----------------------|-0----0-0--0------------|
|
| PM   PM|                         PM   PM|  PM
|--------------------------------|------------------------|
|----7---------------------------|----7-------------------|
|---10---------------------------|---10--------10--10-10--|
|--------------------------------|--------------x---x--x--|
|-0----0-0-----------------------|-0----0-0--0--8---8--8--|
|-0----0-0-----------------------|-0----0-0--0------------|



  PM   PM|  PM      PM
|-----------------|-----------|
|----7------------|----7------|
|---10------------|---10------|
|-----------------|-----------|
|-0----0-0--0-[8]-|-0---------|
|-0----0-0--0-----|-0---------|
|
| PM   PM|  PM------|
|-----------------|-----------|
|----7------------|----7------|
|---10------------|---10------|
|-----------------|-----------|
|-0----0-0--0-----|-0---------|
|-0----0-0--0-----|-0---------|
comments
print report bad tab
I want to post or [tab]
guest
You may want to rate the tab now too:
select rating
Please do not post tabs as comments. Select "correction" instead!