Oops, an error
Loading. Please wait.

Call It Off Tab

ver2
ver2

Whole song

Interactive

More versions @911Tabs.com
294 views 1 this week
no commentswrite comment
1 2 3 4 5
please rate
Autoscroll
+/-
esc
set tempo
stop
Contributor
Difficulty
novice
WARNING: You are trying to view
                                    content from Ultimate-Guitar.com
                                    in an unauthorized application,
                                    which is prohibited.

                                    Please use an official Ultimate
                                    Guitar Tabs application for iPhone,
                                    iPad or Android to access legitimate
                                    chords, guitar, bass, and drum tabs
                                    from Ultimate-Guitar.com database.

                                    Type "ultimate guitar tabs" in Apple
                                    App Store's or Android Market's
                                    search to find the application.
Call It Off by Broadway Calls



Intro
|--------------------------------|
|--------------------------------|
|--11(h)12(p)11-----14----14-----|
|---------------12----12----12---|
|--------------------------------|
|--------------------------------| (x3)

------------------------------|
------------------------------|
--(11)12-11-------------------|
------------12--14--12--------|
------------------------14--12|
------------------------------|

|----------------------------------------------------------|
|----------------------------------------------------------|
|--11s12s11-----14(p)11----14(p)11----14(p)11---14(p)11----|
|-----------12----------12---------12--------12--------12--|
|----------------------------------------------------------|
|----------------------------------------------------------| (x3)

---------------------------------------------|
---------------------------------------------|
--(11)12-11----------------------------------|
------------12--14--12----------12(let ring)-|
------------------------14--12---------------|
---------------------------------------------|


Verse
|---------|
|---------|
|-------7-|
|--7-7--7-|
|--7-7--5-|
|--5-5----|
   *

|------------------------------------------------------------------|
|------------------------------------------------------------------|
|--7-7-7-7-7-7-7-7-7-7-7-7-7-7-7-7---------------------------------|
|--7-7-7-7-7-7-7-7-7-7-7-7-7-7-7-7-7-7-7-7-7-7-7-7-7-7-7-7-7-7-7-7-|
|--5-5-5-5-5-5-5-5-5-5-5-5-5-5-5-5-7-7-7-7-7-7-7-7-7-7-7-7-7-7-7-7-|
|----------------------------------5-5-5-5-5-5-5-5-5-5-5-5-5-5-5-5-|
   * * * * * * * * * * * * * * * * * * * * * * * * * * * * * * * *

--------------------------------------------------------------------|
--------------------------------------------------------------------|
--------------------------------------------------------------------|
--9-9-9-9-9-9-9-9-9-9-9-9-9-9-9-9--8-8-8-8-8-8-8-8-8-8-8-8-8-8-8-8--|
--9-9-9-9-9-9-9-9-9-9-9-9-9-9-9-9--8-8-8-8-8-8-8-8-8-8-8-8-8-8-8-8--|
--7-7-7-7-7-7-7-7-7-7-7-7-7-7-7-7--6-6-6-6-6-6-6-6-6-6-6-6-6-6-6-6--|

------------------------------------------------------|
------------------------------------------------------|
-----------------------------------x-x--x-x--x-x--x-x-|
--7-7-7-7-7-7-7-7-7-7-7-7-7-7-7-7--x-x--x-x--x-x--x-x-|
--7-7-7-7-7-7-7-7-7-7-7-7-7-7-7-7--x-x--x-x--x-x--x-x-|
--5-5-5-5-5-5-5-5-5-5-5-5-5-5-5-5--x-x--x-x--x-x--x-x-|

|---------------------------------------------------------------------|
|---------------------------------------------------------------------|
|--7--7-7-7-7-7-7-7-7-7-7-7-7-7-7-7-7---------------------------------|
|--7--7-7-7-7-7-7-7-7-7-7-7-7-7-7-7-7-7-7-7-7-7-7-7-7-7-7-7-7-7-7-7-7-|
|--5--5-5-5-5-5-5-5-5-5-5-5-5-5-5-5-5-7-7-7-7-7-7-7-7-7-7-7-7-7-7-7-7-|
|-------------------------------------5-5-5-5-5-5-5-5-5-5-5-5-5-5-5-5-|
      * * * * * * * * * * * * * * * * * * * * * * * * * * * * * * * *

--------------------------------------------------------------------|
--------------------------------------------------------------------|
--------------------------------------------------------------------|
--9-9-9-9-9-9-9-9-9-9-9-9-9-9-9-9--8-8-8-8-8-8-8-8-8-8-8-8-8-8-8-8--|
--9-9-9-9-9-9-9-9-9-9-9-9-9-9-9-9--8-8-8-8-8-8-8-8-8-8-8-8-8-8-8-8--|
--7-7-7-7-7-7-7-7-7-7-7-7-7-7-7-7--6-6-6-6-6-6-6-6-6-6-6-6-6-6-6-6--|

------------------------------------------------------|
------------------------------------------------------|
-----------------------------------x-x--x-x--x-x--x-x-|
--7-7-7-7-7-7-7-7-7-7-7-7-7-7-7-7--x-x--x-x--x-x--x-x-|
--7-7-7-7-7-7-7-7-7-7-7-7-7-7-7-7--x-x--x-x--x-x--x-x-|
--5-5-5-5-5-5-5-5-5-5-5-5-5-5-5-5--x-x--x-x--x-x--x-x-|


Chorus:
|-------------------------------------------------------------------|
|-------------------------------------------------------------------|
|--7-7-7-7-7-7-7-7-7-7-7-7-7-7-7-7----------------------------------|
|--7-7-7-7-7-7-7-7-7-7-7-7-7-7-7-7--7-7-7-7-7-7-7-7-7-7-7-7-7-7-7-7-|
|--5-5-5-5-5-5-5-5-5-5-5-5-5-5-5-5--7-7-7-7-7-7-7-7-7-7-7-7-7-7-7-7-|
|-----------------------------------5-5-5-5-5-5-5-5-5-5-5-5-5-5-5-5-|

------------------------------------|
------------------------------------|
------------------------------------|
------------------------------------|
-------4-4-----4-4----5-5-----5-5---|
-----2-----2-2-----2-3----3-3-----3-| (x2)

|---------|
|---------|
|---------|
|-4~-5~---|
|-4~-5~---|
|-2~-3~---|
This Is...

Verse
|---------|
|---------|
|-------7-|
|--7-7--7-|
|--7-7--5-|
|--5-5----|
   *

|------------------------------------------------------------------|
|------------------------------------------------------------------|
|--7-7-7-7-7-7-7-7-7-7-7-7-7-7-7-7---------------------------------|
|--7-7-7-7-7-7-7-7-7-7-7-7-7-7-7-7-7-7-7-7-7-7-7-7-7-7-7-7-7-7-7-7-|
|--5-5-5-5-5-5-5-5-5-5-5-5-5-5-5-5-7-7-7-7-7-7-7-7-7-7-7-7-7-7-7-7-|
|----------------------------------5-5-5-5-5-5-5-5-5-5-5-5-5-5-5-5-|
   * * * * * * * * * * * * * * * * * * * * * * * * * * * * * * * *

--------------------------------------------------------------------|
--------------------------------------------------------------------|
--------------------------------------------------------------------|
--9-9-9-9-9-9-9-9-9-9-9-9-9-9-9-9--8-8-8-8-8-8-8-8-8-8-8-8-8-8-8-8--|
--9-9-9-9-9-9-9-9-9-9-9-9-9-9-9-9--8-8-8-8-8-8-8-8-8-8-8-8-8-8-8-8--|
--7-7-7-7-7-7-7-7-7-7-7-7-7-7-7-7--6-6-6-6-6-6-6-6-6-6-6-6-6-6-6-6--|

------------------------------------------------------|
------------------------------------------------------|
-----------------------------------x-x--x-x--x-x--x-x-|
--7-7-7-7-7-7-7-7-7-7-7-7-7-7-7-7--x-x--x-x--x-x--x-x-|
--7-7-7-7-7-7-7-7-7-7-7-7-7-7-7-7--x-x--x-x--x-x--x-x-|
--5-5-5-5-5-5-5-5-5-5-5-5-5-5-5-5--x-x--x-x--x-x--x-x-|

|---------------------------------------------------------------------|
|---------------------------------------------------------------------|
|--7--7-7-7-7-7-7-7-7-7-7-7-7-7-7-7-7---------------------------------|
|--7--7-7-7-7-7-7-7-7-7-7-7-7-7-7-7-7-7-7-7-7-7-7-7-7-7-7-7-7-7-7-7-7-|
|--5--5-5-5-5-5-5-5-5-5-5-5-5-5-5-5-5-7-7-7-7-7-7-7-7-7-7-7-7-7-7-7-7-|
|-------------------------------------5-5-5-5-5-5-5-5-5-5-5-5-5-5-5-5-|
     * * * * * * * * * * * * * * * * * * * * * * * * * * * * * * * *

--------------------------------------------------------------------|
--------------------------------------------------------------------|
--------------------------------------------------------------------|
--9-9-9-9-9-9-9-9-9-9-9-9-9-9-9-9--8-8-8-8-8-8-8-8-8-8-8-8-8-8-8-8--|
--9-9-9-9-9-9-9-9-9-9-9-9-9-9-9-9--8-8-8-8-8-8-8-8-8-8-8-8-8-8-8-8--|
--7-7-7-7-7-7-7-7-7-7-7-7-7-7-7-7--6-6-6-6-6-6-6-6-6-6-6-6-6-6-6-6--|

------------------------------------------------------|
------------------------------------------------------|
-----------------------------------x-x--x-x--x-x--x-x-|
--7-7-7-7-7-7-7-7-7-7-7-7-7-7-7-7--x-x--x-x--x-x--x-x-|
--7-7-7-7-7-7-7-7-7-7-7-7-7-7-7-7--x-x--x-x--x-x--x-x-|
--5-5-5-5-5-5-5-5-5-5-5-5-5-5-5-5--x-x--x-x--x-x--x-x-|


Chorus:
|-------------------------------------------------------------------|
|-------------------------------------------------------------------|
|--7-7-7-7-7-7-7-7-7-7-7-7-7-7-7-7----------------------------------|
|--7-7-7-7-7-7-7-7-7-7-7-7-7-7-7-7--7-7-7-7-7-7-7-7-7-7-7-7-7-7-7-7-|
|--5-5-5-5-5-5-5-5-5-5-5-5-5-5-5-5--7-7-7-7-7-7-7-7-7-7-7-7-7-7-7-7-|
|-----------------------------------5-5-5-5-5-5-5-5-5-5-5-5-5-5-5-5-|

------------------------------------|
------------------------------------|
------------------------------------|
------------------------------------|
-------4-4-----4-4----5-5-----5-5---|
-----2-----2-2-----2-3----3-3-----3-| (x2)

|------------------|
|------------------|
|------------------|
|-4~-5~----4~-5~---|
|-4~-5~----4~-5~---|
|-2~-3~----2~-3~---|
This Is...


Bridge
|---------------------------------------------------|
|---------------------------------------------------|
|--555-555-555-222-222-222-555-555-555-222-222-222--|
|--555-555-555-222-222-222-555-555-555-222-222-222--|
|--333-333-333-000-000-000-333-333-333-000-000-000--|
|---------------------------------------------------|


|-------------------------------------------------------------------|
|-------------------------------------------------------------------|
|---------2-2-------------2-2-------------2-2-------------2-2-------|
|-----4-4-----4-4-----4-4-----4-4-----2-2-----2-2-----2-2-----2-2---|
|-2-2-------------2-2-------------0-0-------------0-0---------------|
|-------------------------------------------------------------------| (x2)

|-------------------|
|-------------------|
|--2-2-2-2-2-2-2-2--|
|--2-2-2-2-2-2-2-2--|
|--0-0-0-0-0-0-0-0--|
|-------------------|


Acoustic Chorus
|-------------------------------------------------------------------|
|-------------------------------------------------------------------|
|--7-7-7-7-7-7-7-7-7-7-7-7-7-7-7-7----------------------------------|
|--7-7-7-7-7-7-7-7-7-7-7-7-7-7-7-7--7-7-7-7-7-7-7-7-7-7-7-7-7-7-7-7-|
|--5-5-5-5-5-5-5-5-5-5-5-5-5-5-5-5--7-7-7-7-7-7-7-7-7-7-7-7-7-7-7-7-|
|-----------------------------------5-5-5-5-5-5-5-5-5-5-5-5-5-5-5-5-|

-------------------------------------------------------------------|
-------------------------------------------------------------------|
-------------------------------------------------------------------|
--4-4-4-4-4-4-4-4-4-4-4-4-4-4-4-4--5-5-5-5-5-5-5-5-5-5-5-5-5-5-5-5-|
--4-4-4-4-4-4-4-4-4-4-4-4-4-4-4-4--5-5-5-5-5-5-5-5-5-5-5-5-5-5-5-5-|
--2-2-2-2-2-2-2-2-2-2-2-2-2-2-2-2--3-3-3-3-3-3-3-3-3-3-3-3-3-3-3-3-|

End Chorus
|-------------------------------------------------------------------|
|-------------------------------------------------------------------|
|--7-7-7-7-7-7-7-7-7-7-7-7-7-7-7-7----------------------------------|
|--7-7-7-7-7-7-7-7-7-7-7-7-7-7-7-7--7-7-7-7-7-7-7-7-7-7-7-7-7-7-7-7-|
|--5-5-5-5-5-5-5-5-5-5-5-5-5-5-5-5--7-7-7-7-7-7-7-7-7-7-7-7-7-7-7-7-|
|-----------------------------------5-5-5-5-5-5-5-5-5-5-5-5-5-5-5-5-|

------------------------------------|
------------------------------------|
------------------------------------|
------------------------------------|
-------4-4-----4-4----5-5-----5-5---|
-----2-----2-2-----2-3----3-3-----3-| (x3)

|---------|
|---------|
|---------|
|-4~-5~---|
|-4~-5~---|
|-2~-3~---|
This Is...
comments
We did not receive enough feedback on this tab! Please rate:
print report bad tab
1 2 3 4 5
I want to post or [tab]
guest
You may want to rate the tab now too:
select rating
Please do not post tabs as comments. Select "correction" instead!