Oops, an error
Loading. Please wait.

Uncle Sam Goddamn Bass Tab

3,226 views 15 this week
1 commentread comment
1 2 3 4 5
worth learning
x 1
Autoscroll
+/-
esc
set tempo
stop
Contributor
Difficulty
novice
WARNING: You are trying to view
                                    content from Ultimate-Guitar.com
                                    in an unauthorized application,
                                    which is prohibited.

                                    Please use an official Ultimate
                                    Guitar Tabs application for iPhone,
                                    iPad or Android to access legitimate
                                    chords, guitar, bass, and drum tabs
                                    from Ultimate-Guitar.com database.

                                    Type "ultimate guitar tabs" in Apple
                                    App Store's or Android Market's
                                    search to find the application.
Standard tuning, maybe 1/4 step flat

Intro riff                          Lead in ('come on')
G|----------7-5h7------------7-5---I--------------------|
D|0-----0----------0-----0------75-I-0...----5-5-5--53--|
A|---------------------------------I------------------5-|
E|---------------------------------I--------------------|

Verse - repeat this till the end
G|---------------------------------------------------------------------------|
D|------5-----53--------5-----53--------5-----53--------5-----53-------------|
A|--------------5---------------5---------------5---------------5------------|
E|3---------------3---------------3---------------3--------------------------|

Brother Ali's website: http://www.brotherali.com
comments
We did not receive enough feedback on this tab! Please rate:
print report bad tab
1 2 3 4 5
1 comment total.
0 reply
bombasstic wrote on November 7 2012, 07:13 am

I think there's another note on the 3rd fret of the A string during the "walkdown" during the verse - so it would go something like this:
--------
--53----
----53--
------3-

other than that really good tab, nice to see somebody's tabbing some brother ali tunes!

I want to post or [tab]
guest
You may want to rate the tab now too:
select rating
Please do not post tabs as comments. Select "correction" instead!