Oops, an error
Loading. Please wait.

Marry You Bass Tab

ver1
ver1

Whole song

Interactive

More versions @911Tabs.com
13,658 views 15 this week
2 commentsread comments
1 2 3 4 5
not so good
x 3
Autoscroll
+/-
esc
set tempo
stop
Difficulty
novice
WARNING: You are trying to view
                                    content from Ultimate-Guitar.com
                                    in an unauthorized application,
                                    which is prohibited.

                                    Please use an official Ultimate
                                    Guitar Tabs application for iPhone,
                                    iPad or Android to access legitimate
                                    chords, guitar, bass, and drum tabs
                                    from Ultimate-Guitar.com database.

                                    Type "ultimate guitar tabs" in Apple
                                    App Store's or Android Market's
                                    search to find the application.
INTRO

G --------------------------------------------------------|
D --------------------------------------------------------|
A --5555555555555555--7777777777777777--------------------|
E --------------------------------------3333333333333333--|

VERSE/CHORUS

G ------------------------------------------------------------------------|
D ------------------------------------------------------------------------|
A --55555555555555555555555555555555--7777777777777777--------------------|
E ------------------------------------------------------3333333333333333--|

PLAY THIS FROM THE START TO END
comments
We did not receive enough feedback on this tab! Please rate:
print report bad tab
1 2 3 4 5
2 comments total.
0 reply
TommyGun91 wrote on May 26 2011, 02:38 pm

This is very wrong

The notes are F, G, A#, F all the way through

0 reply
Bruno Frenchy wrote on March 1 2015, 12:55 pm

Tuning: EADG
Key: F major
Tempo: 145 bpm

Intro:...Piano + Xylophone + Bass optinal(bells ringging)...
G|-------------|------------||-----------|-----------|-
D|-------------|------------||-8-7-5-----|-----------|-
A|-8----5----8.|.8----5-----||-------8-5-|-5-5-5-----|-
E|----8----6---|----8----6--||-----------|-----------|-
F Gm Bb F ..

G|-----------|-----------||-------------|------------|-
D|-8-7-5-----|-----------||-------------|------------|-
A|-------8-5-|-5-5-5-----||-8----5----8-|-8----5-----|-
E|-----------|-----------||----8----6---|----8----6--|-
F Gm Bb F

Verse1:(Bass starts) 00:13
G|--------------|-------------|--------------| |-------------|-
D|--------------|-------------|--------------| |-------------|-
A|-8-88-88-88-85|-------------|1-11-11-11-3/-|x1 |-8----5----8.|- x2
E|--------------|3-33-33-33-35|--------------| |----8----6---|-
F
It?s a beautiful night,
Gm
We?re looking for something dumb to do.
Bb
Hey baby,
F
I think I wanna marry you.

Part2: 00:26
G|--------------|-------------|--------------| |-------------|-
D|--------------|-------------|--------------| |-------------|-
A|.8-88-88-88-85|-------------|1-11-11-11-3/-|x1 |-8----5----8.|- x2
E|--------------|3-33-33-33-35|--------------| |----8----6---|-
F
Is it the look in your eyes,
Gm
Or is it this dancing juice?
Bb
Who cares baby,
F
I think I wanna marry you.

Pre-chorus1: 00:39
G|-------------|------------||-----------|-----------|-
D|-------------|------------||-8-7-5-----|-----------|-
A|.8----5----8-|-8----5-----||-------8-5-|-5-5-5-----|-
E|----8----6---|----8----6.-||-----------|-----------|-
Gm
Well I know this little chapel on the boulevard we can go (go),
G|-----------|-----------||-------------|------------|-
D|-8-7-5-----|-----------||-------------|------------|-
A|-------8-5-|-5-5-5-----||-8----5----8-|-8----5-----|-
E|-----------|-----------||----8----6---|----8----6--|-
Bb F
No one will know (know), Come on girl

Part2: 00:53
G|-------------|------------||-----------|-----------|-
D|-------------|------------||-8-7-5-----|-----------|-
A|-8----5----8.|.8----5-----||-------8-5-|-5-5-5-----|-
E|----8----6---|----8----6.-||-----------|-----------|-
Gm
Who cares if we?re trashed got a pocket full of cash we can blow (blow)
G|-----------|-----------||-------------|------------|-
D|-8-7-5-----|-----------||-------------|------------|-
A|-------8-5-|-5-5-5-----||-8----5----8.|.8----5-----|-
E|-----------|-----------||----8----6---|----8----6--|-
Bb
Shots of patron,
F
And it?s on girl.

Chorus1 : 01:05
G|--------------|-------------|--------------| |-------------|-
D|--------------|-------------|--------------| |-------------|-
A|-8-88-88-88-85|-------------|1-11-11-11-3/-|x1|-8----5----8.|- x2
E|--------------|3-33-33-33-35|--------------| |----8----6---|-
F
Don?t say no, no, no, no-no;
Gm
Just say yeah, yeah, yeah, yeah-yeah;
Bb
And we?ll go, go, go, go-go.
F
If you?re ready, like I?m ready.

Verse2: 01:18
G|--------------|-------------|--------------| |-------------|-
D|--------------|-------------|--------------| |-------------|-
A|.8-88-88-88-85|-------------|1-11-11-11-3/-|x1 |-8----5----8.|- x2
E|--------------|3-33-33-33-35|--------------| |----8----6---|-
F
Cause it?s a beautiful night,
Gm
We?re looking for something dumb to do.
Bb
Hey baby,
F
I think I wanna marry you.

Part2: 01:31
G|--------------|-------------|--------------| |-------------|-
D|--------------|-------------|--------------| |-------------|-
A|.8-88-88-88-85|-------------|1-11-11-11-3/-|x1 |-8----5----8.|- x2
E|--------------|3-33-33-33-35|--------------| |----8----6---|-
F
Is it the look in your eyes,
Gm
Or is it this dancing juice?
Bb
Who cares baby,
F
I think I wanna marry you.

Pre-Chorus2: 01:45
G|-------------|------------||-----------|-----------|-
D|-------------|------------||-8-7-5-----|-----------|-
A|.8----5----8.|.8----5-----||-------8-5-|-5-5-5-----|-
E|----8----6---|----8----6--||-----------|-----------|-
Gm
I?ll go get a ring let the choir bells sing like oooh,
G|-----------|-----------||-------------|------------|-
D|-8-7-5-----|-----------||-------------|------------|-
A|-------8-5-|-5-5-5-----||-8----5----8.|.8----5-----|-
E|-----------|-----------||----8----6---|----8----6--|-
Bb F
So whatcha wanna do? Let?s just run girl.

Part2: 01:59
G|-------------|------------||-----------|-----------|-
D|-------------|------------||-8-7-5-----|-----------|-
A|-8----5----

I want to post or [tab]
guest
You may want to rate the tab now too:
select rating
Please do not post tabs as comments. Select "correction" instead!