Oops, an error
Loading. Please wait.

Binge And Grab Tab

ver3
ver3

Whole song

Interactive

More versions @911Tabs.com
12,985 views 27 this week
3 commentsread comments
1 2 3 4 5
excellent!
x 3
Autoscroll
+/-
esc
set tempo
stop
Contributor
Hey! There's an official Ultimate Guitar app which is ideal
for learning songs when you're away from computer. Get the app
WARNING: You are trying to view
                                    content from Ultimate-Guitar.com
                                    in an unauthorized application,
                                    which is prohibited.

                                    Please use an official Ultimate
                                    Guitar Tabs application for iPhone,
                                    iPad or Android to access legitimate
                                    chords, guitar, bass, and drum tabs
                                    from Ultimate-Guitar.com database.

                                    Type "ultimate guitar tabs" in Apple
                                    App Store's or Android Market's
                                    search to find the application.
-------------------------------------------------------------------------------
                             BINGE AND GRAB - Buckethead
-------------------------------------------------------------------------------
Tabbed by: Tyler J
Email: full_metal_orange AT hotmail DOT com

Tuning: Standard


E||------------------------------|--------------------------|
B||------------------------------|--------------------------|
G||*-----------------------------|--------------------------|
D||*--9--------9-----10 -11---9--|-----------------7--6--4--|
A||---7-----7-----7--------------|--9--------9--------------|
E||---0--------------------------|--7-----7-----7-----------|

--------------------------|-----------------0--------|-------------------------|
--------------------------|-----2-----4--------4--2--|-----------5-----7----5--|
-----------4-----1-----2--|--------2-----2-----------|--6-----6--6-----6----6--|
--2-----2-----2-----2-----|--2-----------------------|--6-----6--6-----6----6--|
--0-----------------------|--------------------------|--4-----4----------------|
--------------------------|--------------------------|-------------------------|

-------------------------|----------------0--------|----------------0---------||
-----------4-----5----4--|----------4--------4-----|----------4---------------||
--4-----4--4-----4----4--|-------------2--------2--|-------------2-----------*||
--4-----4--4-----4----4--|--2----2-----------------|--2----2-----------6--4--*||
--2-----2----------------|--0----------------------|-------------------6--4---||
-------------------------|-------------------------|-------------------4--2---||

------------------------------|--------------------------|
------------------------------|--------------------------|
*-----------------------------|--------------------------|
*--9--------9-----10 -11---9--|-----------------7--6--4--|
---7-----7-----7--------------|--9--------9--------------|
---0--------------------------|--7-----7-----7-----------|

--------------------------|-----------------0--------|-------------------------|
--------------------------|-----2-----4--------4--2--|-----------5-----7----5--|
-----------4-----1-----2--|--------2-----2-----------|--6-----6--6-----6----6--|
--2-----2-----2-----2-----|--2-----------------------|--6-----6--6-----6----6--|
--0-----------------------|--------------------------|--4-----4----------------|
--------------------------|--------------------------|-------------------------|
                                                                              3x
-------------------------|----------------0--------|----------------0---------||
-----------4-----5----4--|----------4--------4-----|----------4---------------||
--4-----4--4-----4----4--|-------------2--------2--|-------------2-----------*||
--4-----4--4-----4----4--|--2----2-----------------|--2----2-----------6--4--*||
--2-----2----------------|--0----------------------|-------------------6--4---||
-------------------------|-------------------------|-------------------4--2---||

---------------------|------------------------|---------------------|
---------------------|------------------------|---------------------|
---------------------|------------------------|---------------------|
--6---------------4--|-----6-----2------------|--6---------------4--|
--4---------------4--|-----4-----0------0--2--|--4---------------2--|
---------------------|------------------------|---------------------|

-------------------------|---------------------|------------------------|
-------------------------|---------------------|------------------------|
-----------2-------------|---------------------|------------------------|
-----1--2--2-------------|--6---------------4--|-----6-----2------------|
-----------0----0--2--0--|--4---------------4--|-----4-----0------0--2--|
-------------------------|---------------------|------------------------|

---------------------|----------------0--------|--0--------0------------|
---------------------|-------------------4-----|-----4------------------|
---------------------|-----------2----------4--|--------4---------------|
--6---------------4--|-----1--2--2-------------|------------------------|
--4---------------2--|-----------0-------------|------------------------|
---------------------|-------------------------|------------------------|

--------------0--------|--0--------0-----------|--------------0--------|
-----------------4-----|-----4-----4-----------|-----------------4-----|
---------2----------4--|--------4--------------|---------2----------4--|
--4------2-------------|-----------------------|--4------2-------------|
--2------0-------------|-----------------------|--2------0-------------|
-----------------------|-----------------------|-----------------------|

--0--------0-----------|-------------||------------------------------|
-----4-----------------|-------------||------------------------------|
--------4--------------|-------------||*-----------------------------|
-----------------------|-------6--4--||*--9--------9-----10 -11---9--|
-----------------------|-------6--4--||---7-----7-----7--------------|
-----------------------|-------4--2--||---0--------------------------|

--------------------------|--------------------------|
--------------------------|--------------------------|
--------------------------|-----------4-----1-----2--|
-----------------7--6--4--|--2-----2-----2-----2-----|
--9--------9--------------|--0-----------------------|
--7-----7-----7-----------|--------------------------|

-----------------0--------|-------------------------|-------------------------|
-----2-----4--------4--2--|-----------5-----7----5--|-----------4-----5----4--|
--------2-----2-----------|--6-----6--6-----6----6--|--4-----4--4-----4----4--|
--2-----------------------|--6-----6--6-----6----6--|--4-----4--4-----4----4--|
--------------------------|--4-----4----------------|--2-----2----------------|
--------------------------|-------------------------|-------------------------|
                                                    3x
----------------0--------|----------------0---------||---------------------|
----------4--------4-----|----------4---------------||---------------------|
-------------2--------2--|-------------2-----------*||---------------------|
--2----2-----------------|--2----2-----------6--4--*||--6---------------4--|
--0----------------------|-------------------6--4---||--4---------------4--|
-------------------------|-------------------4--2---||---------------------|

------------------------|---------------------|-------------------------|
------------------------|---------------------|-------------------------|
------------------------|---------------------|-----------2-------------|
-----6-----2------------|--6---------------4--|-----1--2--2-------------|
-----4-----0------0--2--|--4---------------2--|-----------0----0--2--0--|
------------------------|---------------------|-------------------------|

---------------------|------------------------|---------------------|
---------------------|------------------------|---------------------|
---------------------|------------------------|---------------------|
--6---------------4--|-----6-----2------------|--6---------------4--|
--4---------------4--|-----4-----0------0--2--|--4---------------2--|
---------------------|------------------------|---------------------|

----------------0--------|--0--------0------------|--------------0--------|
-------------------4-----|-----4------------------|-----------------4-----|
-----------2----------4--|--------4---------------|---------2----------4--|
-----1--2--2-------------|------------------------|--4------2-------------|
-----------0-------------|------------------------|--2------0-------------|
-------------------------|------------------------|-----------------------|

--0--------0-----------|--------------0--------|--0--------------------|
-----4-----4-----------|-----------------4-----|-----4-----------------|
--------4--------------|---------2----------4--|--------4--------------|
-----------------------|--4------2-------------|-----------4-----------|
-----------------------|--2------0-------------|-----------2-----------|
-----------------------|-----------------------|-----------------------|

---------------------------------------|---------------------------------------|
---------------------------------------|---------------------------------------|
---------------------------------2--4--|---------------------------------9--8--|
----------6 -2------------6 -2---2--4--|----------6 -2------------6 -2---9--8--|
--4 -2 -4------6 -4 -2 -4------6-0--2--|--4 -2 -4------6 -4 -2 -4------6-7--6--|
---------------------------------------|---------------------------------------|

---------------------------------------|--------------------|
---------------------------------------|--------------------|
---------------------------------2--4--|--2--------4--------|
----------6 -2------------6 -2---2--4--|--2--------4--------|
--4 -2 -4------6 -4 -2 -4------6-0--2--|--0--------2--------|
---------------------------------------|--------------------|

---------------------------------------|---------------------------------------|
---------------------------------------|---------------------------------------|
---------------------------------2--4--|---------------------------------9--8--|
----------6 -2------------6 -2---2--4--|----------6 -2------------6 -2---9--8--|
--4 -2 -4------6 -4 -2 -4------6-0--2--|--4 -2 -4------6 -4 -2 -4------6-7--6--|
---------------------------------------|---------------------------------------|

---------------------------------------|-------------------|
---------------------------------------|-------------------|
---------------------------------2--4--|--2----------------|
----------6 -2------------6 -2---2--4--|--2----------------|
--4 -2 -4------6 -4 -2 -4------6-0--2--|--0----------------|
---------------------------------------|-------------------|

----------------------|-----------------------------------|
----------------------|-------12--14------12--------------|
--4-------------------|---------------------------13------|
--4-------------------|-- 14----------14------14------14--|
--2-------------------|-----------------------------------|
---------------2br----|-----------------------------------|

------------------------------|-------------------------------11 --|
-------------------------10 --|--12--12--12--12--12--12--10--------|
--11 --13-----------------9 --|--11--11--11--11--13--11---9--------|
--------------14~-------------|------------------------------------|
------------------------------|------------------------------------|
------------------------------|------------------------------------|

-----9br---------------------|---------------------11---|
-------------12-------12br---|-----10--9--9--------14 --|
-----------------------------|--------------------------|
-----------------------------|--------------------------|
-----------------------------|--------------------------|
-----------------------------|--------------------------|

-----11-----12-----14--12--11---|--11--12---------------------|
-----14 ----15 ------------14 --|--14------14~----------------|
--------------------------------|-----------------------------|
--------------------------------|------------------------9-11-|
--------------------------------|-----------------------------|
--------------------------------|-----------------------------|

--------------------------------|--------------------------|
----------10--9------12--10--9--|--9~----10----------------|
-----9-8---------11-------------|------------9-------------|
--11----------------------------|---------------------9-11-|
--------------------------------|--------------------------|
--------------------------------|--------------------------|

---------------------------|
---------------------------|
----9-8--------------------|
---------------------------|
---------11\--9\--7--------|
---------------------------|

--------------------------------------------------------|
--------------------------------------------------------|
--------------------------------------------------------|
--------------------------------------------------------|
--4-----------6-----------7-------------9---------------|
----7-5-4-5-7---9-7-5-7-9---11-9-7-9-11---12-11-9-11-12-|

--------------------------------------------------------------------------|
--------------------------------------------------------------------------|
--------------------------------------------------------------------------|
--------------------------------------------------------11----------------|
--------------------11----------------11-12-14-11-12-14----14-12-11-12-14-|
--11-12-14-11-12-14----14-12-11-12-14-------------------------------------|

---------------------------------------------------------------------------|
---------------------------------------------------------16-17-16-16-17-19-|
--------------------13----------------13-14-13-13-14-16 -------------------|
--13-14-16-13-14-16----16-14-13-14-16--------------------------------------|
---------------------------------------------------------------------------|
---------------------------------------------------------------------------|

--------14-14-16-14-12-14-12----12-------------------------------|
--17-17----------------------16----16-14-16-14-12----------------|
--------------------------------------------------14-12-16br ----|
-----------------------------------------------------------------|
-----------------------------------------------------------------|
-----------------------------------------------------------------|

--------------------14-16-17-14-16-17-------------------16-17-19-16-17-19-|
--14-16-17-14-16-17-------------------16-17-19-16-17-19-------------------|
--------------------------------------------------------------------------|
--------------------------------------------------------------------------|
--------------------------------------------------------------------------|
--------------------------------------------------------------------------|

--------------------17-19-21-17-19-21-------------------19-21-23-19-21-23-|
--17-19-21-17-19-21-------------------19-21-22-19-21-22-------------------|
--------------------------------------------------------------------------|
--------------------------------------------------------------------------|
--------------------------------------------------------------------------|
--------------------------------------------------------------------------|

--------------------21-23-24-21-23-24-21-23-24-24 -------|
--21-22-24-21-22-24--------------------------------------|
---------------------------------------------------------|
---------------------------------------------------------|
---------------------------------------------------------|
---------------------------------------------------------|

--24 ----24---------24---24---24---24----------|
---------24 --------24 --24 --24 --24 ---------|
-----------------------------------------------|
-----------------------------------------------|
-----------------------------------------------|
-----------------------------------------------|

---------19------------------------|
--19 --------19 --19 ----19 -------|
-----------------------------------|
-----------------------------------|
-----------------------------------|
-----------------------------------|


   |---3---|   |---3---|  |---3--|

--16----------------------------------------------|
------19--17--16--17--16-----16-----14 -16-14 -16-|
--------------------------------------------------|
--------------------------------------------------|
--------------------------------------------------|
--------------------------------------------------|

----------------------------------------------------------|
--14 -14br -----14 -16 -14-12 -14 -12----12---------------|
--------------------------------------13----13-11 -13 -11-|
----------------------------------------------------------|
----------------------------------------------------------|
----------------------------------------------------------|

--------------------------|--------------------------------------|
--12br--12 ---------------|------------------------------12------|
--------------------------|--9-----9-11--9-11-13--11 -13-----11--|
--------------------------|-----11-------------------------------|
--------------------------|--------------------------------------|
--------------------------|--------------------------------------|

---------------------------------------|---------------------|
--12--16br --------16 --16br----16-16--|---------------------|
---------------------------------------|--13~----------------|
---------------------------------------|---------------------|
---------------------------------------|---------------------|
---------------------------------------|---------------------|

--------------------------|-------9-9-9 -11-11-11-11 -12-12-12-12 -14-|
--12----12----12----12----|-------x-x-x---x--x--x--x---x--x--x--x---x-|
--13----13----13----13----|-------6-6-6 --8--8--8--8 --9--9--9--9--11-|
--------------------------|-------------------------------------------|
--------------------------|-------------------------------------------|
--------------------------|-------------------------------------------|

--14-14-14 -16-16-16-16 -17-17-17-17 -16-16-16-16 -14-|
---x--x--x---x--x--x--x---x--x--x--x---x--x--x--x---x-|
--11-11-11 -13-13-13-13 -14-14-14-14 -13-13-13-13 -11-|
------------------------------------------------------|
------------------------------------------------------|
------------------------------------------------------|

--14-14-14 -12-12-12-12 -14-14-14-14 -12-12-12-12 --|
---x--x--x---x--x--x--x---x--x--x--x---x--x--x--x---|
--11-11-11 --9--9--9--9 -11-11-11-11 --9--9--9--9 --|
----------------------------------------------------|
----------------------------------------------------|
----------------------------------------------------|

--7---------------------------|------------------------------------|
--x-------- 17-16 -17\--------|------------------------------------|
--4~--------------------------|------------------------------------|
------------------------------|--14~--------------------14----14~--|
------------------------------|---------16-14-16~----------16------|
------------------------------|------------------------------------|


                    T              T
----------------------19-------------|----------------------------------|
-------------19 ---------19br-------|--(17)-----------------------------|
-------------------------------------|----------------------------------|
-------16-14-------------------------|----9---------9-----10 -11---9----|
-------------------------------------|----7------7-----7----------------|
-------------------------------------|----0-----------------------------|

--------------------------|--------------------------|
--------------------------|--------------------------|
--------------------------|-----------4-----1-----2--|
-----------------7--6--4--|--2-----2-----2-----2-----|
--9--------9--------------|--0-----------------------|
--7-----7-----7-----------|--------------------------|

-----------------0--------|-------------------------|-------------------------|
-----2-----4--------4--2--|-----------5-----7----5--|-----------4-----5----4--|
--------2-----2-----------|--6-----6--6-----6----6--|--4-----4--4-----4----4--|
--2-----------------------|--6-----6--6-----6----6--|--4-----4--4-----4----4--|
--------------------------|--4-----4----------------|--2-----2----------------|
--------------------------|-------------------------|-------------------------|

----------------0--------|----------------0--------|---------------------|
----------4--------4-----|----------4--------4-----|---------------------|
-------------2--------2--|-------------2--------2--|---------------------|
--2----2-----------------|--2----2-----------------|--6---------------4--|
--0----------------------|-------------------------|--4---------------4--|
-------------------------|-------------------------|---------------------|

------------------------|---------------------|-----------------------|
------------------------|---------------------|-----------------------|
------------------------|---------------------|-----------2-----------|
-----6-----2------------|--6---------------4--|-----1--2--2-----------|
-----4-----0------0--2--|--4---------------2--|-----------0-----------|
------------------------|---------------------|-----------------------|

---------------------|------------------------|---------------------|
---------------------|------------------------|---------------------|
---------------------|------------------------|---------------------|
--6---------------4--|-----6-----2------------|--6---------------4--|
--4---------------4--|-----4-----0------0--2--|--4---------------2--|
---------------------|------------------------|---------------------|

-----------------------|---------------------|------------------------|
-----------------------|---------------------|------------------------|
-----------2-----------|---------------------|------------------------|
-----1--2--2-----------|--6---------------4--|-----6-----2------------|
-----------0-----------|--4---------------4--|-----4-----0------0--2--|
-----------------------|---------------------|------------------------|

---------------------|-----------------------|---------------------|
---------------------|-----------------------|---------------------|
---------------------|-----------2-----------|---------------------|
--6---------------4--|-----1--2--2-----------|--6---------------4--|
--4---------------2--|-----------0-----------|--4---------------4--|
---------------------|-----------------------|---------------------|

------------------------|---------------------|-----------------------|
------------------------|---------------------|-----------------------|
------------------------|---------------------|-----------2-----------|
-----6-----2------------|--6---------------4--|-----1--2--2-----------|
-----4-----0------0--2--|--4---------------2--|-----------0-----------|
------------------------|---------------------|-----------------------|

-----------------------|-----------------------|-----------------------|
-----------------------|-----------------------|-----------------------|
-----------------------|-----------------------|-----------------------|
--6--------6--6--6--4--|-----6-----------------|--6--------6--6--6--4--|
--4--------4--4--4-----|----------4------0--2--|--4--------4--4--4--2--|
-----------------------|-----------------------|-----------------------|

-----------------------|---------------------|------------------------|
-----------------------|---------------------|------------------------|
-----------2-----------|---------------------|------------------------|
-----1--2--2-----------|--6---------------4--|-----6-----2------------|
-----------0-----------|--4---------------4--|-----4-----0------0--2--|
-----------------------|---------------------|------------------------|

---------------------|-------------------------|---------------------|
---------------------|-------------------------|---------------------|
---------------------|-----------2-------------|---------------------|
--6---------------4--|-----1--2--2-------------|--6---------------4--|
--4---------------2--|-----------0----0--2--0--|--4---------------4--|
---------------------|-------------------------|---------------------|

------------------------|---------------------|----------------0--------|
------------------------|---------------------|-------------------4-----|
------------------------|---------------------|-----------2----------4--|
-----6-----2------------|--6---------------4--|-----1--2--2-------------|
-----4-----0------0--2--|--4---------------2--|-----------0-------------|
------------------------|---------------------|-------------------------|

--0--------0------------|--------------0--------|--0--------0-----------|
-----4-----4------------|-----------------4-----|-----4-----4-----------|
--------4--4------------|---------2----------4--|--------4--------------|
------------------------|--4------2-------------|-----------------------|
------------------------|--2------0-------------|-----------------------|
------------------------|-----------------------|-----------------------|

--------------0--------|--0--------0-----------|--------------0--------|
-----------------4-----|-----4-----4-----------|-----------------4-----|
---------2----------4--|--------4--------------|---------2----------4--|
--4------2-------------|-----------------------|--4------2-------------|
--2------0-------------|-----------------------|--2------0-------------|
-----------------------|-----------------------|-----------------------|

--0--------0-----------|--------------0--------|--0--------0-----------|
-----4-----4-----------|-----------------4-----|-----4-----4-----------|
--------4--------------|---------2----------4--|--------4--4-----------|
-----------------------|--4------2-------------|-----------------------|
-----------------------|--2------0-------------|-----------------------|
-----------------------|-----------------------|-----------------------|
comments
We did not receive enough feedback on this tab! Please rate:
print report bad tab
1 2 3 4 5
3 comments total.
+1 reply
Bucketheadroolz wrote on November 19 2007, 06:55 pm

great tab but i keep losing my place...you should put time markers throught ex 4:40 and then tab 30 secs under it :)

+2 reply
tyler_j wrote on November 20 2007, 01:05 am

i'll try to update asap, i'm very busy atm, but will do!

+1 reply
tritonefasc wrote on March 23 2009, 10:39 am

This tab, and every other one on here have the intro wrong.

(Watch him live or videos on youtube, even from when he played
with the Deli Creeps in the early 90s. He doesn't go down near the
first three frets at all)

It allows for a fuller, less mushy, tone, and more importantly less moving of the hand on the fret board.

Every tab on here also has 1 wrong chord. This chord is shown correctly
below out of context surrounded in asterisks.

E E E E E Q E
--------------------------------|
--------------------------------|
--------------9-----*11*-----9--|
--11-----11--11------*9*----11--|
--11-----11--11-----*11*----11--|

---9------9---------------------|

All the other tabs on here
have it incorectly as 11/11/11, or rather as the improper fingering of 6/6/7 on the d/g/b strings

To start, have your pinky on the 7th fret of the A string,

and the pointer on the 4th fret of the G string, while muting the D string.

E E E E E S E. E E E E E E E E E
E||---------------------------|--------------------------|
B||---------------------------|--------------------------|

G||--4--------4-----4h-6---4--|--------------------------|
D||--x------------------------|--4--------4-----7--6--4--|
A||--7-----7-----7------------|--x-----------------------|
E||--0------------------------|--7-----7-----7-----------|

E E E E E E E E E E E E E E E E
--------------------------|--------------------------|
--------------------------|-----------4-----5--4-----|
-----------4--------------|-----6-----------------6--|

--x--------------6-----7--|--------7-----7-----------|
--7-----7-----7-----7-----|--7-----------------------|
--5-----------------------|--------------------------|

E E E E E Q E E E E E E Q E

------------------------------|-------------------------|
------------------------------|-------------------------|
--------------9-----11-----9--|-----------8-----9----8--|
--11-----11--11------9----11--|--9-----9--9-----9----9--|

--11-----11--11-----11----11--|--9-----9--9-----9----9--|
---9------9-------------------|--7-----7----------------|

Q E E E E E E Q E E E E E E E
-------------------------|-------------------------|-----||

----------4-----5--4-----|----------4-----5--------|-----||
-------------------------|-------------------------|-----||
-------------7--------7--|-------------7-----------|-----||
--7----7-----------------|--7----7-----------------|--7--||

--5----------------------|-------------------4--2--|--0--||

I want to post or [tab]
guest
You may want to rate the tab now too:
select rating
Please do not post tabs as comments. Select "correction" instead!