Oops, an error
Loading. Please wait.

Binge And Grab Tab

ver4
ver4

Whole song

Interactive

More versions @911Tabs.com
21,503 views 12 this week
3 commentsread comments
1 2 3 4 5
excellent!
x 8
add to favorites launch autoscroll
font size
0
reset
Autoscroll
+/-
esc
set tempo
stop
Contributor
WARNING: You are trying to view
                                    content from Ultimate-Guitar.com
                                    in an unauthorized application,
                                    which is prohibited.

                                    Please use an official Ultimate
                                    Guitar Tabs application for iPhone,
                                    iPad or Android to access legitimate
                                    chords, guitar, bass, and drum tabs
                                    from Ultimate-Guitar.com database.

                                    Type "ultimate guitar tabs" in Apple
                                    App Store's or Android Market's
                                    search to find the application.
#----------------------------------PLEASE NOTE---------------------------------#
#This file is the author's own work and represents their interpretation of the #
#song. You may only use this file for private study, scholarship, or research. #
#------------------------------------------------------------------------------#

BINGE AND GRAB
As recorded by Buckethead
(From the 1994 Album GIANT ROBOT)

Transcribed by G Pollock
        

Words and Music by Buckethead
Arranged by Buckethead

Gtr I (E A D G B E) - 'buckethead'
Gtr II (E A D G B E) - 'solo'

   Intro
    Q=135
    E5                   B5                A5
   4/4
    Gtr I
    E E E E E  S  E. E   E E E E E E E E   E E E E E E E E   E E E E E E E E
||---------------------|-----------------|-----------------|-----------------|
||o--------------------|-----------------|-----------------|-----------------|
||---------------------|-----------------|-----------------|---6---8---9-8-6-|
||--------9---10h11--9-|-4-----4---7-6-4-|-2-----9---6---7-|-----7---7-------|
||o-2---7---7----------|-2---2---2-------|-0---0---0---0---|-0---------------|
||--0------------------|-----------------|-----------------|-----------------|


  C#5 C#C#m/F#5C#m/B5  B5B/F#E5/B/F#A5               A5         G#F#5
  E E E E E Q  E   E E E E E Q  E   Q  E E E E E E   Q  E E E E E E   5x
|----------------|----------------|----------0-----|----------0-------||
|-------5---7--5-|-------4---5--4-|------4-----4---|------4----------o||
|-6---6-6---6--6-|-4---4-4---4--4-|--------2-----2-|--------2---------||
|-6---6-6---6--6-|-4---4-4---4--4-|-2--2-----------|-2--2-------6-4---||
|-4---4----------|-2---2----------|-0--------------|-0----------6-4--o||
|----------------|----------------|----------------|------------4-2---||


  C#5       F#5/C#C#5 A/C#       C#5                   A5
  H.      E E   E E E Q.   E E   H.      E E   +E  E E Q  E E E
|-------------|----------------|-------------|-------------------|
|-------------|----------------|-------------|-------------------|
|-------------|----------------|-------------|---------2---------|
|-6---------4-|---6------------|-6-----------|-----1-2-2---------|
|-4---------4-|---4---4----0-2-|-4---------2-|-(2)-----0--0-2-0--|
|-------------|----------------|-------------|-------------------|


  C#5       F#5/C#C#5 A/C#       C#5
  H.      E E   E E E Q.   E E   H.      E E
|-------------|----------------|-------------|
|-------------|----------------|-------------|
|-------------|----------------|-------------|
|-6---------4-|---6------------|-6-----------|
|-4---------4-|---4---4----0-2-|-4---------2-|
|-------------|----------------|-------------|


          A5
  +E  E E Q  E E E   E E E Q.   +E  E
|------------0-----|-0-----0----(0)----|
|--------------4---|---4---4----(4)----|
|---------2------4-|-----4-4----(4)----|
|-----1-2-2--------|-------------------|
|-(2)-----0--------|-------------------|
|------------------|-------------------|


  B5   A5                          B5   A5
  Q.   Q  E E E   E E E H    +E    Q.   Q  E E E   E E E H    +E
|---------0-----|-0-----0----(0)-|---------0-----|-0-----0----(0)--|
|-----------4---|---4---4----(4)-|-----------4---|---4---4----(4)--|
|------2------4-|-----4----------|------2------4-|-----4-----------|
|-4----2--------|----------------|-4----2--------|-----------------|
|-2----0--------|----------------|-2----0--------|-----------------|
|---------------|----------------|---------------|-----------------|


             Chorus
      G5F#5   E5                   B5
 2/4         4/4
  E E E E     E E E E E  S  E. E   E E E E E E E E
|---------||---------------------|-----------------|
|---------||o--------------------|-----------------|
|---------||---------------------|-----------------|
|-----5-4-||--------9---10h11--9-|-4-----4---7-6-4-|
|-----5-4-||o-2---7---7----------|-2---2---2-------|
|-----3-2-||--0------------------|-----------------|


  A5
  E E E E E E E E   E E E E E E E E
|-----------------|-----------------|
|-----------------|-----------------|
|-----------------|---6---8---9-8-6-|
|-2-----9---6---7-|-----7---7-------|
|-0---0---0---0---|-0---------------|
|-----------------|-----------------|


  C#5   C#m/F#5/Ab B5    B/F#E5/B/F#A5               A5
  E E E E E Q  E   E E E E E Q  E   Q  E E E E E E   Q  E E E E E E   3x
|----------------|----------------|----------0-----|----------0-------||
|-------5---7--5-|-------4---5--4-|------4-----4---|------4----------o||
|-6---6-6---6--6-|-4---4-4---4--4-|--------2-----2-|--------2---------||
|-6---6-6---6--6-|-4---4-4---4--4-|-2--2-----------|-2--2-------6-4---||
|-4---4----------|-2---2----------|-0--------------|-0----------6-4--o||
|----------------|----------------|----------------|------------4-2---||


  C#5       F#5/C#C#5 A/C#       C#5                   A5
  H.      E E   E E E Q.   E E   H.      E E   +E  E E Q  E E E
|-------------|----------------|-------------|-------------------|
|-------------|----------------|-------------|-------------------|
|-------------|----------------|-------------|---------2---------|
|-6---------4-|---6------------|-6-----------|-----1-2-2---------|
|-4---------4-|---4---4----0-2-|-4---------2-|-(2)-----0--0-2-0--|
|-------------|----------------|-------------|-------------------|


  C#5       F#5/C#C#5 A/C#       C#5
  H.      E E   E E E Q.   E E   H.      E E
|-------------|----------------|-------------|
|-------------|----------------|-------------|
|-------------|----------------|-------------|
|-6---------4-|---6---7--------|-6-----------|
|-4---------4-|---4---4----0-2-|-4---------2-|
|-------------|----------------|-------------|


          A5
  +E  E E Q  E E E   E E E Q.   +E  E
|------------0-----|-0-----0----(0)----|
|--------------4---|---4---4----(4)----|
|---------2------4-|-----4-4----(4)----|
|-----1-2-2--------|-------------------|
|-(2)-----0--------|-------------------|
|------------------|-------------------|


  B5   A5                          B5   A5               C#5
  Q.   Q  E E E   E E E H    +E    Q.   Q  E E E   E E E Q.   +E  E
|---------0-----|-0-----0----(0)-|---------0-----|-0----------------|
|-----------4---|---4---4----(4)-|-----------4---|---4--------------|
|------2------4-|-----4----------|------2------4-|-----4------------|
|-4----2--------|----------------|-4----2--------|-------4----(4)---|
|-2----0--------|----------------|-2----0--------|-------2----(2)---|
|---------------|----------------|---------------|------------------|


 Interlude
                          A5B5  C#5                     E5D#5
  Gtr I
  S S S S S S S S S S S S E E   S S S S S S S S S S S S E E
|-----------------------------|-----------------------------|
|-----------------------------|-----------------------------|
|-------------------------2-4-|-------------------------9-8-|
|-------6p2---------6p2---2-4-|-------6p2---------6p2---9-8-|
|-4p2h4-----6p4p2-4-----6-0-2-|-4p2h4-----6p4p2-4-----6-7-6-|
|-----------------------------|-----------------------------|
|
| Gtr II
| H               Q       E E   S S H               E   E E
|-----------------------------|-----------------------------|
|-----------------------------|-----------------------------|
|-------------------------2-4-|-6-----------------------9-8-|
|-------------------------2-4-|-6-----------------------9-8-|
|-------------------------0-2-|-4-----------------------7-6-|
|-----------------------------|-----------------------------|


  C#5                     A5B5
  S S S S S S S S S S S S E E
|------------------------------|
|------------------------------|
|-------------------------2-4--|
|-------6p2---------6p2---2-4--|
|-4p2h4-----6p4p2-4-----6-0-2--|
|------------------------------|
|
| S S H               E   E E
|------------------------------|
|------------------------------|
|-6-----------------------2-4--|
|-6-----------------------2-4--|
|-4-----------------------0-2--|
|------------------------------|


  A5   B5                             A5B5                          E5D#5
  H    H      S S S S S S S S S S S S E E   S S S S S S S S S S S S E E
|-----------|-----------------------------|-----------------------------|
|-----------|-----------------------------|-----------------------------|
|-2----4----|-------------------------2-4-|-------------------------9-8-|
|-2----4----|-------6p2---------6p2---2-4-|-6-----6p2---------6p2---9-8-|
|-0----2----|-4p2h4-----6p4p2-4-----6-0-2-|-4p2h4-----6p4p2-4-----6-7-6-|
|-----------|-----------------------------|-----------------------------|
|
| H    H      S S S S S S S S S S S S E E   S S S S S S S S S S S S E E
|-----------|-----------------------------|-----------------------------|
|-----------|-----------------------------|-----------------------------|
|-2----4----|-------------------------2-4-|-------------------------9-8-|
|-2----4----|-------6p2---------6p2---2-4-|-6-----6p2---------6p2---9-8-|
|-0----2----|-4p2h4-----6p4p2-4-----6-0-2-|-4p2h4-----6p4p2-4-----6-7-6-|
|-----------|-----------------------------|-----------------------------|


                          A5B5  A5    B5
  S S S S S S S S S S S S E E   W     W
|-----------------------------|-----|---------------|
|-----------------------------|-----|---------------|
|-------------------------2-4-|-2---|-4-------------|
|-6-----6p2---------6p2---2-4-|-2---|-4-------------|
|-4p2h4-----6p4p2-4-----6-0-2-|-0---|-2-------------|
|-----------------------------|-----|---------------|
|
| S S S S S S S S S S S S E E   W     H +Q  E   +E
|-----------------------------|-----|---------------|
|-----------------------------|-----|---------------|
|-------------------------2-4-|-2---|-4-(4)---------|
|-6-----6p2---------6p2---2-4-|-2---|-4-(4)---------|
|-4p2h4-----6p4p2-4-----6-0-2-|-0---|-2-(2)---------|
|-----------------------------|-----|-------2b3r(2)-|


 Guitar Solo
  E5                           E5
  Gtr II
                                        ~~
    E  E  S S  E  E  E  E  E    E  E E  Q   +Q   E
|----------------------------|---------------------|
|-----12-14------12----------|-------------------9-|
|----------------------13----|-11-13-------------9-|
|-/14---------14----14----14-|---------14--(14)----|
|----------------------------|---------------------|
|----------------------------|---------------------|
|
| Gtr I
|   W                           W
|----------------------------|---------------------|
|----------------------------|---------------------|
|--/9------------------------|--9------------------|
|--/9------------------------|--9------------------|
|--/7------------------------|--7------------------|
|----------------------------|---------------------|


  B5                                   B5
    E  E  E E  E  E S +S   S     +S     +E   E     E  Q   +E   Q
|-------------------------11b12-(11)-|-(11)-11b12r11------------------|
|-/10-10-10-9-12p10-9----------------|---------------12--(12)-12b14r==|
|-/11-11-11-9-13-11-9-(9)------------|--------------------------------|
|------------------------------------|--------------------------------|
|------------------------------------|--------------------------------|
|------------------------------------|--------------------------------|
|
|   W                                    W
|------------------------------------|--------------------------------|
|------------------------------------|--------------------------------|
|---4--------------------------------|---4----------------------------|
|---4--------------------------------|---4----------------------------|
|---2--------------------------------|---2----------------------------|
|------------------------------------|--------------------------------|


  A5                   C#5               B5              A5
                                                                ~~        PM|
   E  E E H     E       +E   Q      Q       E  E  E       E  E  H     +E  S  S
|--------------11----|-(11)-11-----12------14-12-11----|-11-12-----------------|
|-12-10-9-9----14b16-|------14b16--15b17---------14b16-|-14----14----(14)------|
|--------------------|---------------------------------|-----------------------|
|--------------------|---------------------------------|------------------9-11-|
|--------------------|---------------------------------|-----------------------|
|--------------------|---------------------------------|-----------------------|
|
|  W                     H               H                W
|--------------------|---------------------------------|-----------------------|
|--------------------|---------------------------------|-----------------------|
|--2-----------------|---6---------------4-------------|--2--------------------|
|--2-----------------|---6---------------4-------------|--2--------------------|
|--0-----------------|---4---------------2-------------|--0--------------------|
|--------------------|---------------------------------|-----------------------|


  C#5         B5           A5                A5
       PM-----|            ~          PM-----|      PM
   S S E  E E  E  E  E E   Q   E H    S  S    +S  S E  E  E  H
|------------------------|-----------------|-------------------------|
|--------10-9----12-10-9-|-9--10-----------|-------------------------|
|----9-8------11---------|-------9---------|------9-8----------------|
|-11---------------------|------------9-11-|-(11)--------------------|
|------------------------|-----------------|----------11\-9\-7-------|
|------------------------|-----------------|-------------------------|
|
|                                              PM------------------|
|  H           H           W                   E    E  E  E  E E E E
|------------------------|-----------------|-------------------------|
|------------------------|-----------------|-------------------------|
|--6-----------4---------|-2---------------|---2----2--2--2--2-2-2-2-|
|--6-----------4---------|-2---------------|---2----2--2--2--2-2-2-2-|
|--4-----------2---------|-0---------------|---0----0--0--0--0-0-0-0-|
|------------------------|-----------------|-------------------------|


  C#5                                       G#5
  PM-----------------------------------------------
  |----------------------3----------------------|
  S S S S S S S S S S S S S S S S S S S S S S S S
|-------------------------------------------------|
|-------------------------------------------------|
|-------------------------------------------------|
|-------------------------------------------------|
|-0-2-4-0-2-4-6-4-2-2-4-6-7-6-4-4-6-7-9-7-6-6-7-9-|
|-------------------------------------------------|
|
| Gtr I
| E     H                       Q           E
|-------------------------------------------------|
|-------------------------------------------------|
|-6-----------------------------------------------|
|-6-----------------------------------------6-----|
|-4-----------------------------------------6-----|
|-------------------------------------------4-----|


  B5                                                   G#5
 ------------------------------------------------------------|
  |-----------------------------3-----------------------------|
  S S S S S S  S S S S S  S  S  S  S  S  S  S  S  S  S  S  S  S
|---------------------------------------------------------------|
|---------------------------------------------------------------|
|---------------------------------------------------------------|
|---------------------------------------------------------------|
|-6-7-9-6-7-9-11-9-7-7-9-11-11-12-14-11-12-14-16-14-12-12-14-16-|
|---------------------------------------------------------------|
|
| E     H                             Q                 E
|---------------------------------------------------------------|
|---------------------------------------------------------------|
|-4-------------------------------------------------------------|
|-4-----------------------------------------------------6-------|
|-2-----------------------------------------------------6-------|
|-------------------------------------------------------4-------|


  A5
   PM------------------------|
   |---------------3----------------|  |------3-------|   |------3-------|
   S  S  S  S  S  S  S  S  S  S  S  S  S  S  S  S  S  S   S  S  S  S  S  S
|--------------------------------------------------------------------------|
|--------------------------------------------------------16-17-16-16-17-19-|
|-------------------------------------13-14-13-13-14-16/-------------------|
|-13-14-16-13-14-16-18-16-14-14-16-18--------------------------------------|
|--------------------------------------------------------------------------|
|--------------------------------------------------------------------------|
|
| Gtr I
|  E        H                                   E         Q
|--------------------------------------------------------------------------|
|--------------------------------------------------------------------------|
|--------------------------------------------------------------------------|
|--7-----------------------------------------------------------------------|
|--7-----------------------------------------------------------------------|
|--5-----------------------------------------------------------------------|


  A5                          G#5               A5       G#5
   |-------------------------3-------------------------|
   S  S  S  S  S  S  S   S  S  S  S  S  S  S  S  S  S  S  T  +S      E       T
|-------14-14-16-14-12--14-12----12---------------------------------------------|
|-17-17-----------------------16----16-14-16-14-12------------------------------|
|--------------------------------------------------14-12-16-(16)b19r16b19r==16--|
|-------------------------------------------------------------------------------|
|-------------------------------------------------------------------------------|
|-------------------------------------------------------------------------------|
|
|  Q                +E         Q                 Q                        E
|-------------------------------------------------------------------------------|
|-------------------------------------------------------------------------------|
|-------------------------------------------------------------------------------|
|--7----------------(7)--------6-----------------7------------------------6-----|
|--7----------------(7)--------6-----------------7------------------------6-----|
|--5----------------(5)--------4-----------------5------------------------4-----|


  C#5                                                            G#5
   |-------------------------------------------------------------3---------
   S  S  S  S  S  S  S  S  S  S  S  S  S  S  S  S  S  S  S  S  S  S  S  S
|-------------------14-16-17-14-16-17-------------------16-17-19-16-17-19-|
|-14-16-17-14-16-17-------------------16-17-19-16-17-19-------------------|
|-------------------------------------------------------------------------|
|-------------------------------------------------------------------------|
|-------------------------------------------------------------------------|
|-------------------------------------------------------------------------|
|
| Gtr I
|  E        H                                   Q                 E
|-------------------------------------------------------------------------|
|-------------------------------------------------------------------------|
|--6----------------------------------------------------------------------|
|--6--------------------------------------------------------------6-------|
|--4--------------------------------------------------------------6-------|
|-----------------------------------------------------------------4-------|


  B5                                                             G#5
 -----------------------------------------------------|  |------3-------|
   S  S  S  S  S  S  S  S  S  S  S  S  S  S  S  S  S  S  S  S  S  S  S  S
|-------------------17-19-21-17-19-21-------------------19-21-23-19-21-23-|
|-17-19-21-17-19-21-------------------19-21-22-19-21-22-------------------|
|-------------------------------------------------------------------------|
|-------------------------------------------------------------------------|
|-------------------------------------------------------------------------|
|-------------------------------------------------------------------------|
|
|  E        H                                   Q                 E
|-------------------------------------------------------------------------|
|-------------------------------------------------------------------------|
|--4----------------------------------------------------------------------|
|--4--------------------------------------------------------------6-------|
|--2--------------------------------------------------------------6-------|
|-----------------------------------------------------------------4-------|


  A5
   |--------------------3--------------------|
   S  S  S  S  S  S  S  S  S  S  S  S  S  S  S  Q       +E
|-------------------21-23-24-21-23-24-21-23-24-24b28---(24)b28-|
|-21-22-24-21-22-24--------------------------------------------|
|--------------------------------------------------------------|
|--------------------------------------------------------------|
|--------------------------------------------------------------|
|--------------------------------------------------------------|
|
| Gtr I
|  E        H                                   E    Q
|--------------------------------------------------------------|
|--------------------------------------------------------------|
|--------------------------------------------------------------|
|--7-----------------------------------------------------------|
|--7-----------------------------------------------------------|
|--5-----------------------------------------------------------|


  A5           G#5                A5                 G#5
          |-------------------3-------------------|
   Q      Q       +E   E     E       E     E     +Q
|-24b28--24------(24)-24----24------24----24----(24)----|
|--------24b26--------24b26-24b26---24b26-24b26---------|
|-------------------------------------------------------|
|-------------------------------------------------------|
|-------------------------------------------------------|
|-------------------------------------------------------|
|
|  Q     +E    Q                  Q                  E
|-------------------------------------------------------|
|-------------------------------------------------------|
|-------------------------------------------------------|
|--7-----(7)---6------------------7------------------6--|
|--7-----(7)---6------------------7------------------6--|
|--5-----(5)---4------------------5------------------4--|


  C#5                                                   C5
                                                                           ~~
                                                         |--------3--------|
   E     +T   E  E     E     +E   E     +E   +S   +T     E  E  E  E  E  Q  Q  S  S  S  S
|------------19---------------------------------------|-16-------------------------------|
|-19b21-(19)----19b21-19b21-(19)-19b21-(19)-(19)-(19)-|----19-17-16-17-16-16-14h16-14h16-|
|-----------------------------------------------------|----------------------------------|
|-----------------------------------------------------|----------------------------------|
|-----------------------------------------------------|----------------------------------|
|-----------------------------------------------------|----------------------------------|
|
| Gtr I
|  W                                                     W
|-----------------------------------------------------|----------------------------------|
|-----------------------------------------------------|----------------------------------|
|--6--------------------------------------------------|--5-------------------------------|
|--6--------------------------------------------------|--5-------------------------------|
|--4--------------------------------------------------|--3-------------------------------|
|-----------------------------------------------------|----------------------------------|


  B5
   S     S     E     S  S  S  S  S  S  S  S  S  S  S  S
|-------------------------------------------------------|
|-14b16-14b16r14b16-14h16p14-12h14p12----12-------------|
|-------------------------------------13----13-11h13p11-|
|-------------------------------------------------------|
|-------------------------------------------------------|
|-------------------------------------------------------|
|
|  W
|-------------------------------------------------------|
|-------------------------------------------------------|
|--4----------------------------------------------------|
|--4----------------------------------------------------|
|--2----------------------------------------------------|
|-------------------------------------------------------|


  A#5                        A5
   S     +S   H       Q  E   E  S S  E S  S  E  S  S  E  E
|--------------------------|-------------------------------|
|-12b14r(12)-12b14---------|-------------------------12----|
|--------------------------|-9----9-11-9-11-13-11h13----11-|
|--------------------------|---11--------------------------|
|--------------------------|-------------------------------|
|--------------------------|-------------------------------|
|
|  W                         W
|--------------------------|-------------------------------|
|--------------------------|-------------------------------|
|--3-----------------------|-2-----------------------------|
|--3-----------------------|-2-----------------------------|
|--1-----------------------|-0-----------------------------|
|--------------------------|-------------------------------|


  A5
   E  E     E     E  E     E     S  S  E
|-----------------------------------------|
|-12-16b17r16b17r16-16b17-16b17r16-16-16--|
|-----------------------------------------|
|-----------------------------------------|
|-----------------------------------------|
|-----------------------------------------|
|
|  W
|-----------------------------------------|
|-----------------------------------------|
|--2--------------------------------------|
|--2--------------------------------------|
|--0--------------------------------------|
|-----------------------------------------|


  C#5         E5      B5
   ~~
   W           Q   Q   Q   Q
|-----------|-----------------|
|-----------|-12--12--12--12--|
|-13--------|-13--13--13--13--|
|-----------|-----------------|
|-----------|-----------------|
|-----------|-----------------|
|
| Gtr I
|  W           H       H
|-----------|-----------------|
|-----------|-----------------|
|--6--------|--9-------4------|
|--6--------|--9-------4------|
|--4--------|--7-------2------|
|-----------|-----------------|


  C#5
  Q  S S S   S  S  S  S   S  S  S  S   S
|----9-9-9-/11-11-11-11-/12-12-12-12-/14-|
|----------------------------------------|
|----6-6-6--/8--8--8--8--/9--9--9--9-/11-|
|----------------------------------------|
|----------------------------------------|
|----------------------------------------|
|
| W
|----------------------------------------|
|----------------------------------------|
|-6--------------------------------------|
|-6--------------------------------------|
|-4--------------------------------------|
|----------------------------------------|


  C5
   S  S  S   S  S  S  S   S  S  S  S   S  S  S  S   S
|-14-14-14-/16-16-16-16-/17-17-17-17-\16-16-16-16-\14--|
|------------------------------------------------------|
|-11-11-11-/13-13-13-13-/14-14-14-14-\13-13-13-13-\11--|
|------------------------------------------------------|
|------------------------------------------------------|
|------------------------------------------------------|
|
|  W
|------------------------------------------------------|
|------------------------------------------------------|
|--5---------------------------------------------------|
|--5---------------------------------------------------|
|--3---------------------------------------------------|
|------------------------------------------------------|


  B5                                             A#5
   S  S  S  S  S  S  S  S  S  S  S  S  S  S  E   Q  +E    S   S   H
|-14-14-14S12-12-12-12S14-14-14-14S12-12-12-12S|=7----------------------|
|----------------------------------------------|--------/17-\16-/17\----|
|-11-11-11S=9--9--9--9S11-11-11-11S=9--9--9--9S|=4--(4)-----------------|
|----------------------------------------------|------------------------|
|----------------------------------------------|------------------------|
|----------------------------------------------|------------------------|
|
|  W                                             W
|----------------------------------------------|------------------------|
|----------------------------------------------|------------------------|
|--4-------------------------------------------|-3----------------------|
|--4-------------------------------------------|-3----------------------|
|--2-------------------------------------------|-1----------------------|
|----------------------------------------------|------------------------|


  A5                            A5                                   G#5  F#5
   ~~        ~~             ~~~~~~~~~
   Q   S  S  Q   +E   S  S  E    +Q    S  S  Q         +T   S  E        E    +T
|-----------------------------|----------------------------19-----------------------|
|-----------------------------|-------------19b21-----(19)----19pb21r==19---(19)----|
|-----------------------------|-----------------------------------------------------|
|-14-----------------14----14-|-(14)--16-14-----------------------------------------|
|-----16-14-16--(16)----16----|-----------------------------------------------------|
|-----------------------------|-----------------------------------------------------|
|
|  W                              H               +Q                 E    E
|-----------------------------|-----------------------------------------------------|
|-----------------------------|-----------------------------------------------------|
|--2--------------------------|---2---------------(2)-------------------------------|
|--2--------------------------|---2---------------(2)----------------6----4---------|
|--0--------------------------|---0---------------(0)----------------6----4---------|
|-----------------------------|--------------------------------------4----2---------|


 Main Theme
  E5                    B5                A5
   Q   Q   H            W                 W                 W
|---------------------|-----------------|-----------------|------------------|
|-17------------------|-----------------|-----------------|------------------|
|---------------------|-----------------|-----------------|------------------|
|---------------------|-----------------|-----------------|------------------|
|---------------------|-----------------|-----------------|------------------|
|---------------------|-----------------|-----------------|------------------|
|
|  E E E E E  S  E. E   E E E E E E E E   E E E E E E E E   E E E E E E E E
|---------------------|-----------------|-----------------|------------------|
|---------------------|-----------------|-----------------|------------------|
|---------------------|-----------------|-----------------|---6---8---9-8-6--|
|--------9---10h11--9-|-4-----4---7-6-4-|-2-----9---6---7-|-----7---7--------|
|--2---7---7----------|-2---2---2-------|-0---0---0---0---|-0----------------|
|--0------------------|-----------------|-----------------|------------------|


  C#5   C#m/F#5C#m/B5    B/F#E5/B/F#A5               A5
  E E E E E Q  E   E E E E E Q  E   Q  E E E E E E   Q  E E E E E E
|----------------|----------------|----------0-----|----------0------|
|-------5---7--5-|-------4---5--4-|------4-----4---|------4-----4----|
|-6---6-6---6--6-|-4---4-4---4--4-|--------2-----2-|--------2-----2--|
|-6---6-6---6--6-|-4---4-4---4--4-|-2--2-----------|-2--2------------|
|-4---4----------|-2---2----------|-0--------------|-0---------------|
|----------------|----------------|----------------|-----------------|


    C#5       F#5/C#C#5 A/C#       C#5                   A5
    H.      E E   E E E Q.   E E   H.      E E   +E  E E H    +E   4x
||--------------|----------------|-------------|-------------------||
||o-------------|----------------|-------------|------------------o||
||--------------|----------------|-------------|---------2----(2)--||
||--6---------4-|---6------------|-6-----------|-----1-2-2----(2)--||
||o-4---------4-|---4---4----0-2-|-4---------2-|-(2)-----0----(0)-o||
||--------------|----------------|-------------|-------------------||


  C#5                   A/C#       C#5      C#5           A5
  H    E E E E   +E  Q  Q.   E E   H    E E E E   +E  E E H    +E
|--------------|-----------------|--------------|-------------------|
|--------------|-----------------|--------------|-------------------|
|--------------|-----------------|--------------|---------2----(2)--|
|-6----6-6-6-4-|-(4)-6-----------|-6----6-6-6---|-----1-2-2----(2)--|
|-4----4-4-4---|--------4----0-2-|-4----4-4-4-2-|-(2)-----0----(0)--|
|--------------|-----------------|--------------|-------------------|


  C#5       F#5/C#C#5 A/C#       C#5                   A5
  H.      E E   E E E Q.   E E   H.      E E   +E  E E Q  E E E
|-------------|----------------|-------------|-------------------|
|-------------|----------------|-------------|-------------------|
|-------------|----------------|-------------|---------2---------|
|-6---------4-|---6------------|-6-----------|-----1-2-2---------|
|-4---------4-|---4---4----0-2-|-4---------2-|-(2)-----0--0-2-0--|
|-------------|----------------|-------------|-------------------|


  C#5       F#5/C#C#5 A/C#       C#5                   A5
  H.      E E   E E E Q.   E E   H.      E E   +E  E E Q  E E E
|-------------|----------------|-------------|------------0------|
|-------------|----------------|-------------|--------------4----|
|-------------|----------------|-------------|---------2------4--|
|-6---------4-|---6------------|-6-----------|-----1-2-2---------|
|-4---------4-|---4---4----0-2-|-4---------2-|-(2)-----0---------|
|-------------|----------------|-------------|-------------------|


                                       Outro
                     B5   A5                                 B5   A5
  E E E Q.   +E  E   H      E E E E     E E E Q.   +E   E    H      E E E E   3x
|-0-----0----(0)---|----------0-----||--0-----0----(0)-----|----------0-------||
|---4---4----(4)---|------------4---||o---4---4----(4)-----|------------4----o||
|-----4-4----(4)---|--------------4-||------4-4----(4)-----|--------------4---||
|------------------|----------------||---------------------|------------------||
|------------------|----------------||o--------------------|-----------------o||
|------------------|----------------||---------------------|------------------||
|
| Gtr II
| W                  Q.   Q   E E E     E E E H        +E    Q.   Q   E E E   3x
|------------------|----------0-----||--0-----0--------(0)-|----------0-------||
|------------------|------------4---||o---4---4--------(4)-|------------4----o||
|------------------|------2-------4-||------4--------------|------2-------4---||
|------------------|-4----2---------||---------------------|-4----2-----------||
|------------------|-2----0---------||o--------------------|-2----0----------o||
|------------------|----------------||---------------------|------------------||


  E E E Q.   +E   E
|-0-----0----(0)--------*|
|---4---4----(4)--------*|
|-----4-4----(4)--------*|
|-----------------------*|
|-----------------------*|
|-----------------------*|
|
| E E E H        +E
|-0-----0--------(0)----*|
|---4---4--------(4)----*|
|-----4-----------------*|
|-----------------------*|
|-----------------------*|
|-----------------------*|



Duration Legend
---------------
W - whole; H - half; Q - quarter; E - 8th; S - 16th; T - 32nd; X - 64th; a - acciaccatura
+ - note tied to previous; . - note dotted; .. - note double dotted
Uncapitalized letters represent notes that are staccato (1/2 duration)
Irregular groupings are notated above the duration line
Duration letters will always appear directly above the note/fret number it represents the
duration for.  Duration letters with no fret number below them represent rests.  Multi-
bar rests are notated in the form Wxn, where n is the number of bars to rest for.  Low
melody durations appear below the staff

Tablature Legend
----------------
 h   - hammer-on
 p   - pull-off
 b   - bend
 pb  - pre-bend
 r   - bend release (if no number after the r, then release immediately)
 /\  - slide into or out of (from/to "nowhere")
 s   - legato slide
 S   - shift slide
<n> - natural harmonic
[n]  - artificial harmonic
n(n) - tapped harmonic
 ~   - vibrato
 tr  - trill
 T   - tap
 TP  - trem. picking
 PM  - palm muting
\n/  - tremolo bar dip; n = amount to dip
 \n  - tremolo bar down
 n/  - tremolo bar up
/n\  - tremolo bar inverted dip
 =   - hold bend; also acts as connecting device for hammers/pulls
 <> - volume swell (louder/softer)
 x   - on rhythm slash represents muted slash
 o   - on rhythm slash represents single note slash

Misc Legend
-----------
 |  - bar
||  - double bar
||o - repeat start
o|| - repeat end
*|  - double bar (ending)
 :  - bar (freetime)
 $  - Segno
 &  - Coda
Tempo markers - <E/E./Q/Q./H/H.> = BPM(8/16=s8/s16), where s8 = swing 8ths, s16 = swing 16ths

comments
print report bad tab
3 comments total.
0 reply
Nacho Cheese! wrote on July 23 2008, 11:15 am

5* tab. It is the same as the power tab version on here. Did you take the Power Tab version and put it into text? I don't really care to be honest I am just wondering because that is what it seems like.

0 reply
Nacho Cheese! wrote on July 23 2008, 12:29 pm

Actually, I know you took this tab from the power tab. At least you gave him credit.

0 reply
dragonwix wrote on December 10 2010, 05:42 pm

I noticed Buckethead himself plays this a bit diffrent, but the notes are right

http://www.youtube.com/watch?v=_3PJHvMEO8k

I want to post or [tab]
guest
You may want to rate the tab now too:
select rating
Please do not post tabs as comments. Select "correction" instead!