Oops, an error
Loading. Please wait.

Inferno Tab

3,213 views 3 this week
1 commentread comment
1 2 3 4 5
excellent!
x 3
add to favorites launch autoscroll
font size
0
reset
Autoscroll
+/-
esc
set tempo
stop
Contributor
WARNING: You are trying to view
                                    content from Ultimate-Guitar.com
                                    in an unauthorized application,
                                    which is prohibited.

                                    Please use an official Ultimate
                                    Guitar Tabs application for iPhone,
                                    iPad or Android to access legitimate
                                    chords, guitar, bass, and drum tabs
                                    from Ultimate-Guitar.com database.

                                    Type "ultimate guitar tabs" in Apple
                                    App Store's or Android Market's
                                    search to find the application.
-------------------------------------------------------------------------------
                             INFERNO - Cobra Strike
-------------------------------------------------------------------------------
Tabbed by: Aaron McMahon
Email: otakugeek@hotmail.com

Artist: Cobra Strike (Buckethead)
Album: The 13th Scroll
Song: Inferno

Tuning: Standard


Definately a hidden gem.

I'd be willing to say that this is 95% correct, though there might be some parts 
that seem a little off.
Listen for rhythm.


e|------------------------------------------x-x-x------|
B|-----------------12-----------------------x-x-x------|
G|-----9-11~~~~-------11b(12)-11--9--11-----x-x-x------|
D|--11--------------------------------------x-x-x------|
A|------------------------------------------x-x-x------|
E|------------------------------------------x-x-x------|

e|------------------------------------------11-11h12p11--------------|
B|----------------------------12-10-9-----9-------------12-----------|
G|------9p8-8h9p8-----------9------------------------------9---------|
D|--/6------------9-6---/11------------------------------------------|
A|-------------------------------------------------------------------|
E|-------------------------------------------------------------------|

e|----------------19-----------------------------------------------|
B|--19b(21)rb(21)----(21)-(21)-(21)---(21)--r19-17-----------------|
G|-------------------------------------------------18-18-----------|
D|-----------------------------------------------------------------|
A|-----------------------------------------------------------------|
E|-----------------------------------------------------------------|

e|-----------------------------------------------------------------------|
B|-----------------------------------------------------------------------|
G|--4--4h6----4--4h6---------------6---------------[6]-------------------|
D|---------4---------4---4-7-6-------6-----------------6-----------------|
A|-------------------------------------7-6h7p6\4---------7-6h7p6\4-------|
E|-----------------------------------------------------------------------|

e|--------------------------------------------------|
B|--------------------------------------------------|
G|--16--16h18-----16--16h18-------------------------|
D|------------16------------16---16-19-18-----------|
A|--------------------------------------------------|
E|--------------------------------------------------|

e|-------------------19----19-------------------------------------------------------------|
B|----------16-17-19----19----19---19b(21)r-17------16h17p176-----------------------------|
G|--18b(20)------------------------------------18-------------16--16-16-16---16/18--18----|
D|----------------------------------------------------------------------------------------|
A|----------------------------------------------------------------------------------------|
E|----------------------------------------------------------------------------------------|

e|----------------------------------------------------------------------------|
B|-------------------------------17-17-17-16-16-16-16-17-17-17-19-19-19--19---|
G|--16------------------------16----------------------------------------------|
D|-----18\16-14------14-16/18-------------------------------------------------|
A|----------------16----------------------------------------------------------|
E|----------------------------------------------------------------------------|

e|-----------------------------------------------------------------------------|
B|-----------------------------------------------------------------------------|
G|--19\16-----------------------------------------------------16----16-14-13---|
D|----------16b(15)r-14------------------------------------14----14------------|
A|------------------------16-------14--16--14h16--16-16------------------------|
E|---------------------------14-16---------------------------------------------|

e|--------------------------------------------------------------------------------------------|
B|--16h17p16-----------------------------------------------------------------12---------------|
G|-----------16--------------------------------------------------9-11-11b(13)--(13)r11-----9--|
D|--------------14----13--13h14p13h14p13---------------------/11------------------------11----|
A|--------------------------------------------------------------------------------------------|
E|---------------------------------------------/9-9-9-9-9\------------------------------------|

e|----11b(12)r-----------------------------------------------19----19b(21)--(21)-(21)-r---|
B|--9----------12-------(21)r19--19b(21)r-p17----------16-17------------------------------|
G|----------------9---------------------------18-18---------------------------------------|
D|----------------------------------------------------------------------------------------|
A|----------------------------------------------------------------------------------------|
E|----------------------------------------------------------------------------------------|

e|----------------------------------------------------------------------|
B|--17--17p16-16h17-------------------------------12--10p910h12---------|
G|-------------------16\-------------9----------9----------------9------|
D|-------------------------------------------11-------------------------|
A|----------------------------------------------------------------------|
E|----------------------------------------------------------------------|

e|--------------------12--12-11------------------------------------------7---7----|
B|------------------------------12-9---------------------9h10p9p7-9-7-9-----------|
G|------8h9p8h9p8h9---------------------9----9----9-------------------------------|
D|--11------------------------------------11---11---11----------------------------|
A|--------------------------------------------------------------------------------|
E|--------------------------------------------------------------------------------|

e|--12-12-14-14-11-11-11-11-12-12--------------------------------------------------------------|
B|--------------------------------12-12-14-14--------------------------------------------------|
G|--------------------------------------------11-11-11-11-11-11-11-11-11-14-13-----------------|
D|-----------------------------------------------------------------------------11-14-11----14--|
A|--------------------------------------------------------------------------------------14-----|
E|---------------------------------------------------------------------------------------------|

e|---------------------------------------------------------19-17--16h17h19---|
B|--------12h14-12h14-14-[14]-----------------16h17--16----------------------|
G|--11h13-------------------------------16h18--------------------------------|
D|--------------------------------16h18--------------------------------------|
A|---------------------------------------------------------------------------|
E|---------------------------------------------------------------------------|

e|---------------------------------------------------------|
B|--16h17--16----------------------------------------------|
G|------------18----------16-16--16--16--16--16-16--16\----|
D|-----------------16h18-----------------------------------|
A|---------------------------------------------------------|
E|---------------------------------------------------------|

e|---------------------------------------------------------------------|
B|-------------------------------------------14------------------------|
G|--6---6-6-6-6-6-6-6h8-------------------------13---------------------|
D|----------------------[6]------------------------14-13h14p13---------|
A|---------------------------7-6h7p7\4-------------------------14------|
E|---------------------------------------------------------------------|

e|----------------------------------------------------19--17-16--17--------19---19---|
B|----------------------------------------------17-16----------------17-16-----------|
G|--16--16h18------16--16h18---------------------------------------------------------|
D|------------16-------------16--16-19-18--------------------------------------------|
A|-----------------------------------------------------------------------------------|
E|-----------------------------------------------------------------------------------|

e|--19b(21)---(21)--(21)-(21)--(21)-----------19-19---19---17-16--17-19------|
B|-----------------------------------------17---------------------------17---|
G|--------------------------------------16-----------------------------------|
D|---------------------------------------------------------------------------|
A|---------------------------------------------------------------------------|
E|---------------------------------------------------------------------------|

e|-------------------------------------------------------------------------------|
B|-------------------------------------------------------------------------------|
G|--13--13-13-14-----------------------------------------------------------------|
D|---------------14-14-14-11--14p11-11-11----------------------------------------|
A|----------------------------------------16-14--------------------------11/14---|
E|----------------------------------------------16-14---12--12-12--14-12---------|

e|----------------------------------------------11b(12)--(12)r-(12)r-(12)r-(12)r-(12)r-(12)r-----|
B|------------------12b(14)----12b(14)~~~~~r-9-----------------------------------------------12--|
G|----------------------------------------------------------------------------------------------9|
D|------------14---------------------------------------------------------------------------------|
A|--14-14--14------------------------------------------------------------------------------------|
E|-----------------------------------------------------------------------------------------------|

e|---------------------------------------------------------|
B|---------------------------------------------------------|
G|--9----8-----------------9-9-9-9-9-9-8-8-8-8-8-8-8-8-----|
D|--------------9------------------------------------------|
A|---------------------------------------------------------|
E|---------------------------------------------------------|

e|-------------------------------------------------------------------------|
B|-------------------------------------------------------------------------|
G|----------------------------------------9-9-9-9-9-9-8-8-8-8-8-8-8-8------|
D|--6h7p6h7p6h7p6h7p6h7p6--------------------------------------------------|
A|------------------------7p6-b(7)r----------------------------------------|
E|-------------------------------------------------------------------------|

e|----------12-11-------------------------------------------------------|
B|--9-10-9--------12---------------12tr14-------------------------------|
G|-------------------9-------11h13--------------------------------------|
D|-----------------------------------------------9tr11---9tr11-[11]-----|
A|----------------------------------------------------------------------|
E|----------------------------------------------------------------------|

e|----------------------------------------------------------------------|
B|--------------------12---12-12b(13)-----------------------------------|
G|-----------9---11-9------------------11b(12)---11p9-11p9-11p9--9------|
D|--11-11-11------------------------------------------------------------|
A|----------------------------------------------------------------------|
E|----------------------------------------------------------------------|

e|------------------16-16-16b(17)-16--16-16----------------------------------|
B|--14-16b(17)-16---------------------------------14-------------------------|
G|---------------------------------------------------13----------------------|
D|------------------------------------------------------14--13-14-13---------|
A|-------------------------------------------------------------------14------|
E|---------------------------------------------------------------------------|

e|----------------------------------------------------------------------------|
B|--14------------------------------------------------------------------------|
G|-----13-----------------16--16h18-------------------16--16h18---------------|
D|--------14--13-14-13--------------16--16-16-16-16-------------16--16-19-18--|
A|----------------------------------------------------------------------------|
E|----------------------------------------------------------------------------|

e|---------------16b(17)--16-16-16-16-----------------------------------------------------|
B|--17--16--19--------------------------19-19-17-17-16-16-17-17-19-19-19b(21)--(21)-(21)--|
G|----------------------------------------------------------------------------------------|
D|----------------------------------------------------------------------------------------|
A|----------------------------------------------------------------------------------------|
E|----------------------------------------------------------------------------------------|

e|--------------------------------------------------------------------------------------------|
B|--19p17-------------------------------------------------------------------------------------|
G|--------18-----11b(13)--(13)-(13)-(13)----11b(13)r-9------11b(12)r--11b(13)r-9----9--9-9-9--|
D|-------------------------------------------------------11----------------------11-----------|
A|--------------------------------------------------------------------------------------------|
E|--------------------------------------------------------------------------------------------|

e|----------------------------------------------------------------|
B|----------------------------------------------------------------|
G|-----------------9----------------------------------------------|
D|--9h11---9tr11------11--9h11-9h11---9h11-9h11-----9-------------|
A|----------------------------------------------------11\9--7-----|
E|----------------------------------------------------------------|

e|------------------------------------------------------------------------|
B|---------------------------------------12b(14)--------------------------|
G|-------------------------9\6-------------------13-13-11-11b(13)-9-------|
D|-----------------------9------------------------------------------------|
A|--------------7---9/11--------------------------------------------------|
E|--9-9-9-9-9-9-----------------------------------------------------------|

e|-----------------------------------------------------------------------------------|
B|--12b(14)---(14)-(14)-----------------------12b(14)r-------------------------------|
G|-----------------------13-11-11b(13)-9-----------------9-9-------------------------|
D|-------------------------------------------------------------9/11--13/14--9-11-----|
A|-------------------------------------------------------------------------------11--|
E|-----------------------------------------------------------------------------------|

e|------------------------------------------------------------------------------------------|
B|--------------12----------------------12-12-----------------------------------------------|
G|-----9h11-/13----13\11-9-9--11/13-----------11b(13)-11-9-11-11b(13)-9-9-11-11b(13)-9------|
D|--11---------------------------------------------------------------------------------11---|
A|------------------------------------------------------------------------------------------|
E|------------------------------------------------------------------------------------------|

e|-------------------------------------------------12-11-11-12-12-14-14-14b(16)----r-14----|
B|------------------------12-12--14--14-14-14-14-------------------------------------------|
G|----------------11/13--------------------------------------------------------------------|
D|-----9/11-13/14--------------------------------------------------------------------------|
A|--11-------------------------------------------------------------------------------------|
E|-----------------------------------------------------------------------------------------|

e|--14-14-14--12-12-12p11-11-11--12-----------------------------------|
B|----------------------------------12-12---12h14---------------------|
G|------------------------------------------------11--11-11-14p13-----|
D|--------------------------------------------------------------------|
A|--------------------------------------------------------------------|
E|--------------------------------------------------------------------|

e|-------------------------------------------------------|
B|-------------------------------------------------------|
G|--6-------------6-8b(9)rb(9)rb(9)rb(9)r----6--[6]------|
D|------------6-9--------------------------9-------------|
A|----------9--------------------------------------------|
E|-------------------------------------------------------|

e|--9-11-11b(12)---11-----------------------------------------------------|
B|--------------------12---12\---9h10p9----------14-----------------------|
G|--------------------------------------9-----------13--------------------|
D|-----------------------------------------------------14--13h14p13-------|
A|------------------------------------------------------------------14----|
E|------------------------------------------------------------------------|

e|---------------------------------------------------------------------------|
B|---------------------------------------------------------------------------|
G|--16--16h18------16--16h18-------------------6--------------6--------------|
D|------------16-------------16--16-19-18--------6--------------6------------|
A|-------------------------------------------------7--6h7p6-------7--6h7p6---|
E|---------------------------------------------------------------------------|

e|-----------------------------------------------|
B|---------------------------------------5-------|
G|--4--4h6-----4--4h6------------------8---------|
D|---------4----------4--4-7-6-------6-----------|
A|---------------------------------4-------------|
E|-----------------------------------------------|


| b  bend note
| r  release bent note
| () bend note to
| [] pinch harmonic
| /  slide up
| \  slide down
| h  hammer-on
| p  pull-off
| ~  vibrato
| +  harmonic
| x  Mute note
===============================================================================
comments
We did not receive enough feedback on this tab! Please rate:
print report bad tab
1 2 3 4 5
1 comment total.
0 reply
Clabbe wrote on December 29 2009, 01:39 am

Awesome tab. Just what i needed to get through the day ! Honestly i dont give a shit if its correct, got a quite good ear. Besides i think its more fun to improvise to bucketheads sounds !

I want to post or [tab]
guest
You may want to rate the tab now too:
select rating
Please do not post tabs as comments. Select "correction" instead!