Oops, an error
Loading. Please wait.

Jordan Tab

ver3
ver3
More versions @911Tabs.com
7,466 views 3 this week
6 commentsread comments
1 2 3 4 5
accurate
x 3
Autoscroll
+/-
esc
set tempo
stop
Contributor
Hey! There's an official Ultimate Guitar app which is ideal
for learning songs when you're away from computer. Get the app
WARNING: You are trying to view
                                    content from Ultimate-Guitar.com
                                    in an unauthorized application,
                                    which is prohibited.

                                    Please use an official Ultimate
                                    Guitar Tabs application for iPhone,
                                    iPad or Android to access legitimate
                                    chords, guitar, bass, and drum tabs
                                    from Ultimate-Guitar.com database.

                                    Type "ultimate guitar tabs" in Apple
                                    App Store's or Android Market's
                                    search to find the application.
Tuning: Down Half step
Track 1
     W                   W
E||-------------------|-------------------|
B||-------------------|-------------------|
G||-------------------|-------------------|
D||-------------------|-------------------|
A||-------------------|-------------------|
E||-------------------|-------------------|


   S  S   S   S  S   S  S   S  S   S   S  S  S  S  E
------------------------------------------------------|
------------------------------------------------------|
------------------------------------------------------|
------------------------------------------------------|
--------------------------------------------10-12-10--|
--12-(0)-(0)-12-(0)-12-(0)-12-(0)-(0)-10-12-----------|


   S  S   S   S  S   S  S   S  S   S   S  S  S  S  E
------------------------------------------------------|
------------------------------------------------------|
------------------------------------------------------|
------------------------------------------------------|
--------------------------------------------10-12-10--|
--12-(0)-(0)-12-(0)-12-(0)-12-(0)-(0)-10-12-----------|


   S  S   S   S  S   S  S   S  S   S   S  S  S  S  E
------------------------------------------------------|
------------------------------------------------------|
------------------------------------------------------|
------------------------------------------------------|
--------------------------------------------10-12-10--|
--12-(0)-(0)-12-(0)-12-(0)-12-(0)-(0)-10-12-----------|


   S  S   S   S  S   S  S   S  S   S   S  S  S  S  E
------------------------------------------------------|
------------------------------------------------------|
------------------------------------------------------|
------------------------------------------------------|
--------------------------------------------10-12-10--|
--12-(0)-(0)-12-(0)-12-(0)-12-(0)-(0)-10-12-----------|


   S  S   S   S  S   S  S   S  S   S   S  S  S  S  E
------------------------------------------------------|
------------------------------------------------------|
------------------------------------------------------|
------------------------------------------------------|
--------------------------------------------10-12-10--|
--12-(0)-(0)-12-(0)-12-(0)-12-(0)-(0)-10-12-----------|


   S  S   S   S  S   S  S   S  S   S   S  S  S  S  E
------------------------------------------------------|
------------------------------------------------------|
------------------------------------------------------|
------------------------------------------------------|
--------------------------------------------10-12-10--|
--12-(0)-(0)-12-(0)-12-(0)-12-(0)-(0)-10-12-----------|


   S  S   S   S  S   S  S   S  S   S   S  S  S  S  E
------------------------------------------------------|
------------------------------------------------------|
------------------------------------------------------|
------------------------------------------------------|
--------------------------------------------10-12-10--|
--12-(0)-(0)-12-(0)-12-(0)-12-(0)-(0)-10-12-----------|


   S   S    S   S   S   S   S   S   S   S  S  S  S  S   E
------------------------------------------------------------|
------------------------------------------------------------|
------------------------------------------------------------|
--14-----------14------14-(14)-13-(13)-13-13-12-12-12-(12)--|
------------------------------------------------------------|
-----(12)-(12)----(12)--------------------------------------|


  E  E  E  S E  S E  S S S S    S S S S S S S S S S S S S S S S
-----------------------------|----------------------------------|
-----------------------------|----------------------------------|
-----------------------------|----------------------------------|
--4--4-----------------------|--4-4-4---------------------------|
-----------------------------|--------------------------2-L-2-2-|
--------2--2-3--3-3--0-0-0-0-|--------2-2-2-3-3-3-3-3-3-0-L-0-0-|


   S  S   S   S  S   S  S   S  S   S   S  S  S  S  E
------------------------------------------------------|
------------------------------------------------------|
------------------------------------------------------|
------------------------------------------------------|
--------------------------------------------10-12-10--|
--12-(0)-(0)-12-(0)-12-(0)-12-(0)-(0)-10-12-----------|


   S  S   S   S  S   S  S   S  S   S   S  S  S  S  E
------------------------------------------------------|
------------------------------------------------------|
------------------------------------------------------|
------------------------------------------------------|
--------------------------------------------10-12-10--|
--12-(0)-(0)-12-(0)-12-(0)-12-(0)-(0)-10-12-----------|


   S  S   S   S  S   S  S   S  S   S   S  S  S  S  E
------------------------------------------------------|
------------------------------------------------------|
------------------------------------------------------|
------------------------------------------------------|
--------------------------------------------10-12-10--|
--12-(0)-(0)-12-(0)-12-(0)-12-(0)-(0)-10-12-----------|


   S  S   S   S  S   S  S   S  S   S   S  S  S  S  E
------------------------------------------------------|
------------------------------------------------------|
------------------------------------------------------|
------------------------------------------------------|
--------------------------------------------10-12-10--|
--12-(0)-(0)-12-(0)-12-(0)-12-(0)-(0)-10-12-----------|


   S  S   S   S  S   S  S   S  S   S   S  S  S  S  E
------------------------------------------------------|
------------------------------------------------------|
------------------------------------------------------|
------------------------------------------------------|
--------------------------------------------10-12-10--|
--12-(0)-(0)-12-(0)-12-(0)-12-(0)-(0)-10-12-----------|


   S  S   S   S  S   S  S   S  S   S   S  S  S  S  E
------------------------------------------------------|
------------------------------------------------------|
------------------------------------------------------|
------------------------------------------------------|
--------------------------------------------10-12-10--|
--12-(0)-(0)-12-(0)-12-(0)-12-(0)-(0)-10-12-----------|


   S  S   S   S  S   S  S   S  S   S   S  S  S  S  E
------------------------------------------------------|
------------------------------------------------------|
------------------------------------------------------|
------------------------------------------------------|
--------------------------------------------10-12-10--|
--12-(0)-(0)-12-(0)-12-(0)-12-(0)-(0)-10-12-----------|


   S  S   S   S  S   S  S   S  S   S   S  S  S  S  E
------------------------------------------------------|
------------------------------------------------------|
------------------------------------------------------|
------------------------------------------------------|
--------------------------------------------10-12-10--|
--12-(0)-(0)-12-(0)-12-(0)-12-(0)-(0)-10-12-----------|


   S   S    S   S   S   S   S   S   S   S  S  S  S  S   E
------------------------------------------------------------|
------------------------------------------------------------|
------------------------------------------------------------|
--14-----------14------14-(14)-13-(13)-13-13-12-12-12-(12)--|
------------------------------------------------------------|
-----(12)-(12)----(12)--------------------------------------|


  E  E  E  S E  S E  S S S S    S S S S S S S S S S S S S S S S
-----------------------------|----------------------------------|
-----------------------------|----------------------------------|
-----------------------------|----------------------------------|
--4--4-----------------------|--4-4-4---------------------------|
-----------------------------|--------------------------2-L-2-2-|
--------2--2-3--3-3--0-0-0-0-|--------2-2-2-3-3-3-3-3-3-0-L-0-0-|


   |--3--|  |--3--|  |--3--|  |--3--|  |--3--|  |--3--|  |--3--|  |--3--|
   S  S  S  S  S  S  S  S  S  S  S  S  S  S  S  S  S  S  S  S  S  S  S  S
-----------------------------------16-------17----------------17----------|
--------------------------16----15-------16----------17----16----------17-|
-----------------16----15----14-------15----------16----15----------16----|
--------16----15----14-------------------------15----------------15-------|
-----15----14-------------------------------------------------------------|
--14----------------------------------------------------------------------|


   |--3--|  |--3--|  |--3--|  |--3--|  |--3--|  |--3--|
   S  S  S  S  S  S  S  S  S  S  S  S  S  S  S  S  S  S  Q
-----------------------------------19-------20-------21-22~-----|
--------------------------19----18-------19-------20----21b~----|
-----------------19----18----17-------18-------19---------------|
--------19----18----17------------------------------------------|
-----18----17---------------------------------------------------|
--17------------------------------------------------------------|


   H.             S  S   S   S     S  S    E   S  S  S  S  S  S  S  E.   S   S
-------------------------------|-----------------------------------------------|
--17--------------L------------|-----------------------------------------------|
--16br------------L-14h-16p-14-|--14-13pbr-L-----------------------------------|
-------------------------------|--------------16-14----------------------------|
-------------------------------|--------------------16-14-12-14-16------14S-16-|
-------------------------------|-----------------------------------14----------|


   H           S  E   S   E   S   S
------------------------------------|
-----------------17--19s-17--17p-15-|
--16b~--------16--------------------|
------------------------------------|
------------------------------------|
------------------------------------|


   S   S  S  E    Q       S  S  S  S  S   E
-----------------------------------------------|
--14h-15-17------------------------------------|
------------14~--13br--------------------------|
-------------------------16-16-14-14-16-(16)\--|
-----------------------------------------------|
-----------------------------------------------|


   S  S   S  S  S   S  S  S  S  S  S  S  S  S  S  S
----------------------------------------------------|
----------------------------------------------------|
-----14s-13--------------14-------16-18----18-------|
--16-----14-14-14s-16-16----18-18----19-19----18-18-|
----------------------------------------------------|
----------------------------------------------------|


   S   S  S  S   S  S  S   S  S   S  Q      E
-----------------------------------------------|
------------------------------------------/18--|
--16s-14----14s-13-----------14s-16-16---------|
------16-16-----14-14-14s-16-16s-18-18---------|
-----------------------------------------------|
-----------------------------------------------|


   |--3--|  |--3--|  |--3--|  |--3--|  |--3--|  |--3--|  |--3--|  |--3--|
   S  S  S  S  S  S  S  S  S  S  S  S  S  S  S  S  S  S  S  S  S  S  S  S
--21-17----21-17----19-16----19-16----17-14----17-14----16-12----16-12----|
--------19-------17-------17-------17-------14-------14-------12-------12-|
--------------------------------------------------------------------------|
--------------------------------------------------------------------------|
--------------------------------------------------------------------------|
--------------------------------------------------------------------------|


   |--3--|  |--3--|  |--3-| |--3--|   |--3-|
   S  S  S  S  S  S  S S  S S  S  S S S  S S S   E   E
--14-10----14-10----12-9----9-14-10-7---10-7-------------|
--------10-------12------10-----------7------7-----------|
---------------------------------------------------------|
---------------------------------------------------------|
-----------------------------------------------/12--14\--|
---------------------------------------------------------|


            tr        tr        tr        tr
   |--3--|
   S  S  S  Q         Q         Q         E
-------------------------------------------------|
-----------------------------------------12(18)--|
-------------------------------12(17)------------|
---------------------12(17)----------------------|
-----------12(17)--------------------------------|
--10-12-11---------------------------------------|


   tr        tr
                             |--3--|  |--3--|  |--3--|
   Q         Q         S  S  S  S  S  S  S  S  S  S  S
--12(18)-----------------------------------------------|
------------13(19)-------------------------------------|
-------------------------------------------------------|
----------------------17-17----------------------------|
----------------------------16-------------------------|
-------------------------------17-16-19-15-18-14-13-14-|


   tr        tr        tr        tr        tr
   |-------------------5-------------------|
   Q         Q         Q         Q         Q
------------------------------------------15(20)----|
--------------------------------15(20)--------------|
----------------------15(20)------------------------|
------------15(20)----------------------------------|
--15(20)--------------------------------------------|
----------------------------------------------------|


   tr       tr          tr
   E.       Q.          Q.         S
-----------16(21)--------------------|
--15(20)---------------15(20)------L-|
-------------------------------------|
-------------------------------------|
-------------------------------------|
-------------------------------------|


            tr        tr        tr        tr
   |--3--|
   S  S  S  Q         Q         Q         E
-------------------------------------------------|
-----------------------------------------12(18)--|
-------------------------------12(17)------------|
---------------------12(17)----------------------|
-----------12(17)--------------------------------|
--10-12-11---------------------------------------|


   tr        tr
                             |--3--|  |--3--|  |--3--|
   Q         Q         S  S  S  S  S  S  S  S  S  S  S
--12(18)-----------------------------------------------|
------------13(19)-------------------------------------|
-------------------------------------------------------|
----------------------17-17----------------------------|
----------------------------16-------------------------|
-------------------------------17-16-19-15-18-14-13-14-|


   tr        tr        tr        tr        tr
   |-------------------5-------------------|
   Q         Q         Q         Q         Q
------------------------------------------15(20)----|
--------------------------------15(20)--------------|
----------------------15(20)------------------------|
------------15(20)----------------------------------|
--15(20)--------------------------------------------|
----------------------------------------------------|


  tr     tr      tr      tr      tr
  E      E       E       E       Q         Q
--------------------------------------------------|
--8(14)--9(14)--10(14)--11(14)--12(14)----12br----|
--------------------------------------------------|
--------------------------------------------------|
--------------------------------------------------|
--------------------------------------------------|


         |-----7-----|  |-----7-----|  |-----7-----|  |-----7-----|  7
   E     S  S  S  S  S  S  S  S  S  S  S  S  S  S  S  S  S  S  S  S  S  S  S
--17br--16-17-16-14----14-17-14-16-17-16-14----------------------------------|
--------------------17----------------------17-15-14-15-14-14-15-14-12-------|
-----------------------------------------------------------------------14-13-|
-----------------------------------------------------------------------------|
-----------------------------------------------------------------------------|
-----------------------------------------------------------------------------|


   7  7  7  7  7  7  7  7  7  7  7  7  7  7  7  7  7  7  7  7  7  7  7 7  7  7
   S  S  S  S  S  S  S  S  S  S  S  S  S  S  S  S  S  S  S  S  S  S  S S  S  S
---------------------------------------------------------------------------------|
---------------------------------------------------------------------------------|
--14-13-11----11-14-11-13-14-13-11-----------------------------------------------|
-----------14----------------------14-12-11-14-12-14-12--------------------------|
--------------------------------------------------------16-14-12-----------------|
-----------------------------------------------------------------16-14-L-12-14-1-|


   7  7  7  7  7  7  7  7  7  7  7  7  7  7  7  7  7  7  7  7  7  7  7  7  7  7
   S  S  S  S  S  T  T  S  S  S  S  S  S  S  S  S  S  S  S  S  S  S  S  S  S  S
-----------------------------------------------------------------------14-16-17-|
-----------------------------------------------------14-15-17-14-15-17----------|
-----------------------------------13-14-16-13-14-17----------------------------|
--------------12-12-14-16-12-14-16----------------------------------------------|
--12-12-14-16-------------------------------------------------------------------|
--------------------------------------------------------------------------------|


   7  7  7  7  7  7  7  7  7  7  7  7  7  7  7  7  7  7  7  7  7 --- 3  3
   S  S  S  S  S  S  S  S  S  S  S  S  S  S  S  S  S  S  S  S  S  S  S  S  E
--------------14-17-14-16-17-16-14----------------14-16-17-16-14--------------|
--15-14-15-17----------------------17-15-14-15-17----------------17-15-14-16--|
------------------------------------------------------------------------------|
------------------------------------------------------------------------------|
------------------------------------------------------------------------------|
------------------------------------------------------------------------------|


   7  7  7  7  7  7  7  7  7  7  7  7  7  7  7  7  7  7  7  7  7 7  7  7  7  7
   S  S  S  S  S  S  S  S  S  S  S  T  T  S  S  T  T  S  S  S  S S  S  S  S  S
--11-13-14-14-13-11----11-14-11-13-14-13-11--------------------------------------|
--------------------14----------------------14-12-10-12-11-12-11-9---------------|
-------------------------------------------------------------------11-10-10-11-1-|
---------------------------------------------------------------------------------|
---------------------------------------------------------------------------------|
---------------------------------------------------------------------------------|


   7 7  7  7  7 7  7 7 7  7 7  7  7 7 7  7 7 7  7  7  7 7 7  7  7 7  7  7
   S S  S  S  S S  S S S  S S  S  S S S  S S S  S  S  S S S  S  S S  S  S
--------------------------------------------------------------------------|
--------------------------------------------------------------------------|
--11-8-10-11-10-8---------------------------------------------------------|
------------------10-9-9-11-9-11-11-9-8-----------------------------------|
----------------------------------------11-9-8----------------------------|
-----------------------------------------------11-14-11-L-9-11-13-9-11-13-|


  7  7  7 7  7  7 7  7  7 7  7  7  7  7  7  7  7  7  7  7  7  7  7  7  7  7  7
  S  S  S S  S  S S  S  S S  S  S  S  S  S  S  S  S  S  S  S  S  S  S  T  T  S
----------------------------------------------------------------------11-13-11---|
----------------------------------------------------11-12-14-11-12-14----------1-|
----------------------------------10-11-13-10-12-14------------------------------|
------------------9-11-13-9-11-13------------------------------------------------|
--9-11-13-9-11-13----------------------------------------------------------------|
---------------------------------------------------------------------------------|


   7  7  7  7  7  7  7  7  7  7  7  7  7  7  7  7  7  7  7  7  7  7  7  7  7  7
   S  S  S  T  T  S  S  S  S  S  S  S  S  S  S  S  S  S  S  S  S  S  S  S  S  S
--11-13-14-13-11----------------11-13-14----------11-14-11-13-14-13-11----11-14-|
-----------------14-12-11-12-14----------11-12-14----------------------14-------|
--------------------------------------------------------------------------------|
--------------------------------------------------------------------------------|
--------------------------------------------------------------------------------|
--------------------------------------------------------------------------------|


                      |--3--|
   Q.        Q.       S  S  S   E
-----------------------------------|
--14br------14b------12-14-12s-11--|
-----------------------------------|
-----------------------------------|
-----------------------------------|
-----------------------------------|


   S  S  S  E   S   S  S  S  S  S  S  S   S S S
------------------------------------------------|
--11-12-14--------------------------------------|
-----------11---L\-10-11-10---------------------|
----------------------------13-13-11------------|
-------------------------------------13s-11-9-1-|
------------------------------------------------|


   E   E   S  S  S  S E  E   Q         H          Q     Q
-----------------------------------|--------------------------|
-----------------------------------|--------------------------|
-----------------------------1s----|--15s--------22\----------|
-----------------------------------|--------------------------|
--13------------11-13-L--L\--------|--------------------x\----|
------11--11-14--------------------|--------------------x\----|


  Q      Q    Q       Q        H          S S S S    E  E
----------------------------|-------------2----------------|
----------------------------|---------------2-5------------|
--4br----L----Lpbr----Lb----|--Lbr--------------4pbr-L--4--|
----------------------------|------------------------------|
----------------------------|------------------------------|
----------------------------|------------------------------|


  E.   S E     S S H            H        H             Q      Q.     E   Q
-----------------------------|---------------------|---------------------------|
-----------------------------|---------------------|---------------------------|
--2s---5-2pbr----------------|-----------4~--------|--16b----14------L\--x\----|
---------------4-------------|---------------------|---------------------x\----|
-----------------2-2b--------|--L------------------|---------------------------|
-----------------------------|---------------------|---------------------------|


   H          Q     E    E      E   E   S  S  S  S  S  S  S  S  S  S  S  S
----------------------------|----------------------------------------------|
--17b--------17----17s--10--|----------------------------------------------|
----------------------------|----------------------------------------------|
----------------------------|--16--14--------------------------------------|
----------------------------|----------15-14-15-14-12----14----12-14-14-16-|
----------------------------|-------------------------14----14-------------|


   S  S  Q    H          S   S
-------------------------------|
-------------------------------|
--------14----Lbr--------------|
--14-16------------------7s-16-|
-------------------------------|
-------------------------------|


   S  S  S  S  S  S  S  S  S  S  S  S  S  S  S  S
--------------------------------------------------|
--------------------------------------------------|
--------------------------------------------------|
--------------------------------------13-13-------|
--------------13-13-13-13-------------------14-14-|
--11-11-11-11-------------14-14-14-14-------------|


   S  S  S  S  S  S  S  S  S  S  S  S  S  S  S  S
--------------------------13-13-14-14-11-11-------|
--------------14-14-11-11-------------------14-14-|
--11-11-11-10-------------------------------------|
--------------------------------------------------|
--------------------------------------------------|
--------------------------------------------------|


   S  S  S  S  S  S  S  S  S  S  S  S  S  S  S  S
--11-11-------------------------------------------|
--------------11-11-------------------------------|
--------13-13-------11-11-10-10-------------------|
--------------------------------13-13-11-11-------|
--------------------------------------------13-13-|
--------------------------------------------------|


   S  S  S  S  S  S  S  S  S  S  E   E  E
--------------------------------------------|
--------------------------------------------|
--------------------------------------------|
--11-11-11-11-11-11-13-13-------------------|
--------------------------14-14-13b--L--L\--|
--------------------------------------------|


   S  T  T T  T  T T  T  T  T  T  T  T T  T  T  T  T  T  T  T  T  T T  T  T  T
---------------------------------------------------------------------------------|
--10-----------------------10-12-10------10-14-10-12-14-12-10---------14-12-10---|
-----11-13-9-11-13-9-11-13----------13-9----------------------13-11-9----------1-|
---------------------------------------------------------------------------------|
---------------------------------------------------------------------------------|
---------------------------------------------------------------------------------|


   S  T  T  T  T  T  T T  T  T T  T  T T  T T  T T  T T  T  T  T T  T   T  S  S.
---------------------------------------9-10-9----9-12-9-10-12-10-9--------------|
--12-10----------------9-10-12-9-10-12--------12-------------------12s-11-15-17-|
--------13-10-12-10-11----------------------------------------------------------|
--------------------------------------------------------------------------------|
--------------------------------------------------------------------------------|
--------------------------------------------------------------------------------|


   T  T  T  T  T  T  T  T  T  T  T  T  T  T  T  T  T  T  T  T  T  T  T  T  T  T
--14-16-14----14-17-14-16-17-16-14----------------14-16-17----------14-17-14-16-|
-----------17----------------------17-15-14-15-17----------14-15-17-------------|
--------------------------------------------------------------------------------|
--------------------------------------------------------------------------------|
--------------------------------------------------------------------------------|
--------------------------------------------------------------------------------|


   T  T  T  T  T  T  T  T  T  T  T  T  T  T  T  T  S   S  T  T  T  T  T  T  T  T
--------19----16-17-19----------16-19-19-19-17-19-17s-16-16-17-16-17-17-16-14----|
--17-19----19----------16-17-19-----------------------------------------------17-|
---------------------------------------------------------------------------------|
---------------------------------------------------------------------------------|
---------------------------------------------------------------------------------|
---------------------------------------------------------------------------------|


   This part is played with an auto-wah
   |-------------------3-------------------|  |--3--|  |--3--|  |--3--|  |--3--|
   S                                    S  S  S  S  S  S  S  S  S  S  S  S  S  S
--14--------------------------------------------------------------------14-------|
---------------------------------------------14----------------14----------------|
---------------------------------------11-11----11-11-14-11-11----11-11----11-11-|
---------------------------------------------------------------------------------|
---------------------------------------------------------------------------------|
---------------------------------------------------------------------------------|


   |--3--|  |--3--|  |--3--|  |--3-|  |-3-|  |-3-|  |-3-|  |-3-|
   S  S  S  S  S  S  S  S  S  S  S S  S S S  S S S  S S S  S S S
--14---------------------------------12------------10------------|
-----------14----------------14-------------12------------10-----|
-----11-11----11-11-14-11-11----11-9----9-9----9-7----7-7----7-7-|
-----------------------------------------------------------------|
-----------------------------------------------------------------|
-----------------------------------------------------------------|


   |--3--|  |--3--|  |--3--|  |--3--|  |--3--|  |--3--|  |--3--|  |--3--|
   S  S  S  S  S  S  S  S  S  S  S  S  S  S  S  S  S  S  S  S  S  S  S  S
--14----------------------------------14-------------17-------------------|
-----------14----------------14----------------14-------------17----------|
-----11-11----11-11-14-11-11----11-11----11-11----11----14-14----14-14-11-|
--------------------------------------------------------------------------|
--------------------------------------------------------------------------|
--------------------------------------------------------------------------|


   |-3-|  |-3-|  |-3-|  |-3-|  |-3-|  |-3-|  |-3-|  |-3-|
   S S S  S S S  S S S  S S S  S S S  S S S  S S S  S S S
--12--------------------------10--------------------------|
---------12------------12------------10------------10-----|
-----9-9----9-9-13-9-9----9-7----7-7----7-7-11-7-7----7-7-|
----------------------------------------------------------|
----------------------------------------------------------|
----------------------------------------------------------|


  E  E  E  S E  S E  S S S S    S S S S S S S S S S S S S S S S
-----------------------------|----------------------------------||
-----------------------------|----------------------------------||
-----------------------------|----------------------------------||
--4--4-----------------------|--4-4-4---------------------------||
-----------------------------|--------------------------2-L-2-2-||
--------2--2-3--3-3--0-0-0-0-|--------2-2-2-3-3-3-3-3-3-0-L-0-0-||


Duration Legend
---------------
W - whole
H - half
Q - quarter
E - 8th
S - 16th
T - 32nd
X - 64th
. - note dotted
|-n-|  - n-tuplets


Tablature Legend
----------------
L - tied note
x - dead note
g - grace note
(n) - ghost note
> - accentuded note
NH - natural harmonic
AH - artificial harmonic
TH - tapped harmonic
SH - semi harmonic
PH - pitch harmonic
h - hammer on
p - pull off
b - bend
br - bendRelease
pb - preBend
pbr - preBendRelease
brb - bendReleaseBend
\n/ - tremolo bar dip
\n - tremolo bar dive
-/n - tremolo bar Release up
/n\ - tremolo bar inverted dip
/n - tremolo bar return
-\n - tremolo bar Release down
S - shift slide
s - legato slide
/ -  slide into from below or out of upwards
\ -  slide into from above or out of downwards
~ - vibrato
W - wide vibrato
tr - trill
TP - tremolo picking
T - tapping
S - slap
P - pop
< - fade in
^ - brush up
v - brush down
comments
We did not receive enough feedback on this tab! Please rate:
print report bad tab
1 2 3 4 5
6 comments total. Showing first comments.
+1 reply
Mcassidy42 wrote on January 3 2007, 08:10 am

You have to use the kill-switch effect by switching one pickup volume knob to 0 and the other to 10, this only works with LP syle electronics, if you can't do that correctly this will sound nothing like the song.

+1 reply
supea wrote on November 25 2007, 11:02 am

omg amaziing 5*

+1 reply
buckethead_jr wrote on March 8 2008, 04:27 pm

lol @ people voting it 2 stars.

This is the export from my GP tab, which has over 30 votes for 5 stars, you're just making yourself look like twats by saying this is wrong ;)

I want to post or [tab]
guest
You may want to rate the tab now too:
select rating
Please do not post tabs as comments. Select "correction" instead!