Oops, an error
Loading. Please wait.

Pigs Are People Too Tab

237 views 1 this week
no commentswrite comment
1 2 3 4 5
please rate
add to favorites launch autoscroll
font size
0
reset
Autoscroll
+/-
esc
set tempo
stop
WARNING: You are trying to view
                                    content from Ultimate-Guitar.com
                                    in an unauthorized application,
                                    which is prohibited.

                                    Please use an official Ultimate
                                    Guitar Tabs application for iPhone,
                                    iPad or Android to access legitimate
                                    chords, guitar, bass, and drum tabs
                                    from Ultimate-Guitar.com database.

                                    Type "ultimate guitar tabs" in Apple
                                    App Store's or Android Market's
                                    search to find the application.
Clean Tone; hold chord forms throughout; let notes ring


----0-----------0------------------------------------------------------|
------4-----------2----------------------------------------------------|
-0------0-----0-----0--------------------------------------------------|
-5------------3--------------------------------------------------------|
-6------------4--------------------------------------------------------|
-----------------------------------------------------------------------|


----0--------------0---------------------------------------------------|
------4--------------2-------------------------------------------------|
-0------0-----0--0-----------------------------------------------------|
-5------------3--------------------------------------------------------|
-6------------4--------------------------------------------------------|
-----------------------------------------------------------------------|


-----------------------------------------------------------------------|
-----------------------------------------------------------------------|
------4-4------------4-4------------4-4------------4-4-----------------|
-3----3-3-------3----3-3-------3----3-3-------3----3-3-----------------|
-3--x-2-2-------3--x-2-2-------3--x-2-2-------3--x-2-2-----------------|
-1------------x-1------------x-1------------x-1----------/2s14--/14s2--|

-----2-2-------------3-3---------------------2-----------------3-------|
-----3-3---2-3-2-----3-3---3-2-2-------------3---2-3-2-3-2-----3---2-2-|
-4-4-4-4---2-2-2-----4-4---2-2-2---------4-4-4---2-2-2-2-2-----4---2-2-|
-4-4-4-4---2-4-2---5-5-5---4-2-2---------4-4-4---2-4-2-4-2---5-5---2-2-|
-2-2-2-2---0-0-0---5-5-5---0-0-0---------2-2-2---0-0-0-0-0---5-5---0-0-|
-------------------3-3-3-------------------------------------3-3-------|

-----2-------------3-----------------2-----------3---------------------|
-----3---2-3-2-----3---2-2-----------3---2-2-3---3---------------------|
-4-4-4---2-2-2-----4---2-2--------4--4---2-2-2---4---------------------|
-4-4-4---2-4-2---5-5---2-2--------4--4---2-2-4---5---------------------|
-2-2-2---0-0-0---5-5---0-0--------2--2---0-0-0---5---------------------|
-----------------3-3-----------------------------3---------------------|


--------0---------------------0--------------------0-------------------|
------4---4-----2-----------4---4-----2----------4---4-----2-----------|
-0--0-------0---0------0--0-------0---0-----0--0-------0---0-----------|
-5--------------3------5--------------3-----5--------------3-----------|
-6--------------4------6--------------4-----6--------------4-----------|
-----------------------------------------------------------------------|

Repeat with slight variations:

--------0----------0---------------0----------0------------------------|
------4---4-----2----2-----------4---4-----2----2----------------------|
-0--0-------0---0------0-----0--0------0---0------0--------------------|
-5--------------3------------5-------------3---------------------------|
-6--------------4------------6-------------4---------------------------|
-----------------------------------------------------------------------|


-----------------------------------------------------------------------|
-----------------------------------------------------------------------|
-----------------------------------------------------------------------|
-4-----4-4---------4-----4-4---------4-----4-4---------4-----4-4-------|
-2-3---2-2-3-3-----2-3---2-2-3-3-----2-3---2-2-3-3-----2-3---2-2-3-3---|
---1-------1-1-------1-------1-1-------1-------1-1-------1-------1-1---|

-----------------------------------------------------------------------|
-----------------------------------------------------------------------|
-----------------------------------------------------------------------|
-4-----4-4---------4-----4-4---------4-----4-4---------4-----4-4-------|
-2-3---2-2-3-3-----2-3---2-2-3-3-----2-3---2-2-3-3-----2-3---2-2-3-3---|
---1-------1-1-------1-------1-1-------1-------1-1-------1-------1-1---|


-----------------------------------------------------------------------|
-----------------------------------------------------------------------|
-----------------------------------------------------------------------|
-----------------------------------------------------------------------|
-6--4-4----------6--4-4----------6--4-4----------6--4-4----------------|
-4--2-2----------4--2-2----------4--2-2----------4--2-2----------------|

-----------------------------------------------------------------------|
-----------------------------------------------------------------------|
-----------------------------------------------------------------------|
-4-----4-4---------4-----4-4---------4-----4-4---------4-----4-4-------|
-2-3---2-2-3-3-----2-3---2-2-3-3-----2-3---2-2-3-3-----2-3---2-2-3-3---|
---1-------1-1-------1-------1-1-------1-------1-1-------1-------1-1---|

-----------------------------------------------------------------------|
-----------------------------------------------------------------------|
-----------------------------------------------------------------------|
-4-----4-4---------4-4-----4-4-----------------------------------------|
-2-3---2-2-3-3-----2-2-3---2-2-3-3-----2-----2-2-------2-2-----2-2-----|
---1-------1-1---------1-------1-1-------1-------1---------1-------1-1-|

-----------------------------------------------------------------------|
-----------------------------------------------------------------------|
-----------------------------------------------------------------------|
-----------------------------------------------------------------------|
-2-----2-2--------2-2-----2-2---------2-2-----2-2----------------------|
---1-------1-1--------1-------1-1---------1-------1-1------------------|

-----------------------------------------------------------------------|
-----------------------------------------------------------------------|
-----------------------------------------------------------------------|
-----------------------------------------------------------------------|
-2-----2-2--------2-2-----2-2---------2-2-----2-2----------------------|
---1-------1-1--------1-------1-1---------1-------1-1------------------|

-----------------------------------------------------------------------|
-----------------------------------------------------------------------|
-----------------------------------------------------------------------|
-----------------------------------------------------------------------|
-2-2-----2-2--------2-2-----2-2---------2-2-----2-2--------------------|
-----1-------1-1--------1-------1-1---------1-------1-1----------------|

-----------------------------------------------------------------------|
-----------------------------------------------------------------------|
-----------------------------------------------------------------------|
-----------------------------------------------------------------------|
-2-2-----2-2-----------------------------------------------------------|
-----1-------1-1-------------------------------------------------------|

-----------------------------------------------------------------------|
-----------------------------------------------------------------------|
-----------------------------------------------------------------------|
-----------------------------------------------------------------------|
-2-2-----2-2-----------2-2-----2-2-----------2-2-----2-2---------------|
-----1-------1-1-1---------1-------1-1-1---------1-------1-1-1---------|

-----------------------------------------------------------------------|
-----------------------------------------------------------------------|
-----------------------------------------------------------------------|
-----------------------------------------------------------------------|
-2-2-----2-2-----------------------------------------------------------|
-----1-------1-1-1-----------------------------------------------------|

-----------------------------------------------------------------------|
-----------------------------------------------------------------------|
-----------------------------------------------------------------------|
-4-----4-4--------4-----4-4--------4-----4-4--------4-4-----4-4--------|
-2-3---2-2-3-3----2-3---2-2-3-3----2-3---2-2-3-3----2-2-3---2-2-3-3-3--|
---1-------1-1------1-------1-1------1-------1-1--------1-------1-1-1--|


---------0---------------0---------------------------------------------|
-------4-------2--------4------2---------------------------------------|
-----0---------0-------0-------0---------------------------------------|
---------------3------5--------3---------------------------------------|
-4s6-----------4-----6---------4---------------------------------------|
-----------------------------------------------------------------------|

-----0----------------0----------------0-------------------------------|
----4-------2--------4-------2--------4-------2------------------------|
---0-------0--------0-------0--------0-------0-------------------------|
--5-------3--------5-------3--------5-------3--------------------------|
-6-------4--------6-------4--------6-------4---------------------------|
-----------------------------------------------------------------------|

Repeat with slight variations:
-----0--------------------0--------------------0------------------------|
----4--4--------2--------4--4--------2--------4--4--------2-------------|
---0-----0-----0--------0-----0-----0--------0-----0-----0--------------|
--5-----------3--------5-----------3--------5-----------3---------------|
-6-----------4--------6-----------4--------6-----------4----------------|
------------------------------------------------------------------------|


-----------------------------------------------------------------------|
-----------------------------------------------------------------------|
-----------------------------------------------------------------------|
-4--4------------------------------------------------------------------|
-2--2------------------------------------------------------------------|
-----------------------------------------------------------------------|

A.
-----------------------------------------------------------------------|
-----------------------------------------------------------------------|
-----------------------------------------------------------------------|
-4-4-----4-4-----------4-4-----4-4-----------4-4-----4-4---------------|
-2-2-3---2-2-3-3-3-----2-2-3---2-2-3-3-3-----2-2-3---2-2-3-3-3---------|
-----1-------1-1-1---------1-------1-1-1---------1-------1-1-1---------|

-----------------------------------------------------------------------|
-----------------------------------------------------------------------|
-----------------------------------------------------------------------|
-4-4-----4-4-----------------------------------------------------------|
-2-2-3---2-2-3-3-3-----------------------------------------------------|
-----1-------1-1-1-----------------------------------------------------|

B.
-----------------------------------------------------------------------|
-----------------------------------------------------------------------|
-----------------------------------------------------------------------|
-----------------------------------------------------------------------|
-2-2-----2-2-----------2-2-----2-2-----------2-2-----2-2---------------|
-----1-------1-1-1---------1-------1-1-1---------1-------1-1-1---------|

-----------------------------------------------------------------------|
-----------------------------------------------------------------------|
-----------------------------------------------------------------------|
-----------------------------------------------------------------------|
-2-2-----2-2-----------------------------------------------------------|
-----1-------1-1-1-----------------------------------------------------|

-----------------------------------------------------------------------|
-----------------------------------------------------------------------|
-----------------------------------------------------------------------|
-----------------------------------------------------------------------|
-2-2-----2-2-----------2-2-----2-2-----------2-2-----2-2---------------|
-----1-------1-1-1---------1-------1-1-1---------1-------1-1-1---------|

-----------------------------------------------------------------------|
-----------------------------------------------------------------------|
-----------------------------------------------------------------------|
-----------------------------------------------------------------------|
-2-2-----2-2-----------------------------------------------------------|
-----1-------1-1-1-----------------------------------------------------|

C.
-----------------------------------------------------------------------|
-----------------------------------------------------------------------|
-----------------------------------------------------------------------|
-4-----4-4-----------4-4-----4-4-----------4-4-----4-4-----------------|
-2-3---2-2-3-3-3-----2-2-3---2-2-3-3-3-----2-2-3---2-2-3-3-3-----------|
---1-------1-1-1---------1-------1-1-1---------1-------1-1-1-----------|

-----------------------------------------------------------------------|
-----------------------------------------------------------------------|
-----------------------------------------------------------------------|
-4-4-----4-4-----------------------------------------------------------|
-2-2-3---2-2-3-3-3-----------------------------------------------------|
-----1-------1-1-1-----------------------------------------------------|

-----------------------------------------------------------------------|
-----------------------------------------------------------------------|
-----------------------------------------------------------------------|
-4-4-----4-4-----------4-4-----4-4-----------4-4-----4-4---------------|
-2-2-3---2-2-3-3-3-----2-2-3---2-2-3-3-3-----2-2-3---2-2-3-3-3---------|
-----1-------1-1-1---------1-------1-1-1---------1-------1-1-1---------|

-----------------------------------------------------------------------|
-----------------------------------------------------------------------|
-----------------------------------------------------------------------|
-4-4-----4-4-----------4-4-----4-4---------4~--------------------------|
-2-2-3---2-2-3-3-3-----2-2-3---2-2-3-3-3---2~--------------------------|
-----1-------1-1-1---------1-------1-1-1-------------------------------|
comments
We did not receive enough feedback on this tab! Please rate:
1 2 3 4 5
I want to post or [tab]
guest
You may want to rate the tab now too:
select rating
Please do not post tabs as comments. Select "correction" instead!