Oops, an error
Loading. Please wait.

Sail On Soothsayer Tab

ver1
ver1

Intro

Whole song

More versions @911Tabs.com
21,880 views 39 this week
6 commentsread comments
1 2 3 4 5
excellent!
x 13
add to favorites launch autoscroll
font size
0
reset
Autoscroll
+/-
esc
set tempo
stop
Contributor
WARNING: You are trying to view
                                    content from Ultimate-Guitar.com
                                    in an unauthorized application,
                                    which is prohibited.

                                    Please use an official Ultimate
                                    Guitar Tabs application for iPhone,
                                    iPad or Android to access legitimate
                                    chords, guitar, bass, and drum tabs
                                    from Ultimate-Guitar.com database.

                                    Type "ultimate guitar tabs" in Apple
                                    App Store's or Android Market's
                                    search to find the application.
-------------------------------------------------------------------------------
        Sail on Soothsayer - Buckethead (Album version)
-------------------------------------------------------------------------------
Tabbed by: Brad V. (black_box on http://www.ultimate-guitar.com/forum/index.php)

Standard Tuning


E|------------10---------------------|-----------------------------------------|
B|-----7h8h10----10p8-7-------------*|----------------------------------------*|
G|----------------------7----7h9-9---|-------------12--------------------------|
D|------------------------9---------*|-----9h10h12----12p10-9-----------------*|
A|-----------------------------------|-0----------------------10-----10h12-12--|
E|-0---------------------------------|---------------------------12------------|

E|---------------------------------------------------|
B|---------------------------------------------------|
G|-12~~~11~-12~-14~/16~~~~~-14h16p14\12~-14/16~~-----|
D|-----------------------------------------------14--|
A|---------------------------------------------------|
E|---------------------------------------------------|

E|---------------------------------------------------------------------|
B|---------------------------------------------------------------------|
G|--------12-14-12--11-11--12------------------------------------------|
D|-----14---------------------12---------12----------------------------|
A|--14----------------------------12-/14----12-----12-14------------14-|
E|----------------------------------------------15-------12---14-15----|

E|-----------------------------------------------------|
B|-12~~-----12------------15/17~~~-15-15-13~~---12-12~~|
G|------14~--------------------------------------------|
D|-------------14~~~~~~~-------------------------------|
A|-----------------------------------------------------|
E|-----------------------------------------------------|

E|----------------------------------------------------------------------------|
B|----------------------------------------------------------------------------|
G|-14~~12h14/16~~-12h14-12\11~~~12-11~~12~~---------------------------14/16~~-|
D|-----------------------------------------12h14~-12---------------14---------|
A|---------------------------------------------------12~~----12/14------------|
E|--------------------------------------------------------15------------------|

E|-15h17p15--14~h15---------------------------------|
B|------------------15~~~~-15h17~~-15---------------|
G|------------------------------------16~-14~h16-16-|
D|--------------------------------------------------|
A|--------------------------------------------------|
E|--------------------------------------------------|

E|---------------------------------------------------------------|
B|---------------------------------------------------------------|
G|--(14)b16r14-12--11h12-----------------------------------------|
D|-----------------------12----12h14~~-12------------------------|
A|--------------------------14------------12----12h14~-14~~------|
E|-------------------------------------------15-------------12~~-|
    pre-bend

E|--14-14-15-14------------14-15-17~~-/19~~~--------|
B|--------------15~~~~~~~-------------------17~~17~~|
G|--------------------------------------------------|
D|--------------------------------------------------|
A|--------------------------------------------------|
E|--------------------------------------------------|

E|-----------------------------------------------|
B|-17\15~~~-15-15h17-----------------------------|
G|-------------------14-14-14h16~~~--------------|
D|-----------------------------------14-14-14-17-|
A|-----------------------------------------------|
E|-----------------------------------------------|

E|--------------------------------------|
B|--------------------------------------|
G|--------------------------------------|
D|-16-17-16-17-16-17-16-----------------|
A|----------------------17-17-14-14~~~~-|
E|--------------------------------------|

E|--------------------------------------|
B|--------------------------------------|
G|--------------------------------------|
D|--------------------12-9-9h10~~~------|
A|-10~~~-9---------10-------------10~~~~|
E|---------10-12~~~---------------------|

E|--------------------------------------------------|
B|--------------------------------------------------|
G|--12-12-11~~~-----------14/16~~~-14--12--14~/16~~-|
D|--------------12-12~~~~---------------------------|
A|--------------------------------------------------|
E|--------------------------------------------------|

E|--------------------------------------------------------------|
B|--------------------------------------------------------------|
G|----16~~~-16b17r16~~~~-16b17r16--14--16--14-------------------|
D|-14-----------------------------------------17~-16~-17~-/21~~~|
A|--------------------------------------------------------------|
E|--------------------------------------------------------------|

E|--17h19-17~~~15-15-14~~~14-15-15-14------------------|
B|------------------------------------17~~~15-17-------|
G|-----------------------------------------------14-16-|
D|-----------------------------------------------------|
A|-----------------------------------------------------|
E|-----------------------------------------------------|

E|-------------------------------------------------------|
B|--------------------------------7h8--------------------|
G|--14~h16p14\12-14-12\11-12-11---7h9~~-7----------------|
D|----------------------------------------9-7~~----7-9~~-|
A|----------------------------------------------10-------|
E|-------------------------------------------------------|

E|------------------------------------------10--------|
B|-7h8---------------7h8~---------------7-8----8-7----|
G|-7h9~~~7---7h9~~~--7h9~-7------------------------9~~|
D|---------9----------------9-7~~7h9~~----------------|
A|----------------------------------------------------|
E|----------------------------------------------------|

E|------------------------------------------------|
B|-7h8---------------------------10-12~~12b13r12~~|
G|-7h9~~-7----7h9~~7~~---7-9-/12------------------|
D|---------9-----------9--------------------------|
A|------------------------------------------------|
E|------------------------------------------------|

E|----12~----------------12~~---------------12-12----------------------|
B|--------12~~-15~~-12~~------12~~-15~~-12~~------12-12-15~~-15/17~~---|
G|-12---------------------------------------------------------------14-|
D|---------------------------------------------------------------------|
A|---------------------------------------------------------------------|
E|---------------------------------------------------------------------|

E|----12-14-14b15~~r14------------------------------------|
B|-12------------------15~~~~-----------------------------|
G|---------------------------11~~-12h14p12----------------|
D|-----------------------------------------14-12-14-14~~~~|
A|--------------------------------------------------------|
E|--------------------------------------------------------|

E|----------------------------------------12---15/17~-15-|
B|-------------------------------------------------------|
G|--------12-11-12-14-/16~~------------------------------|
D|--12-14------------------14~~--14h17~~-----------------|
A|-------------------------------------------------------|
E|-------------------------------------------------------|

E|-14-15-14-15--|-------------------------------------------------|
B|-------------*|---15----------15--------------------------------|
G|--------------|------14h16~~~----14b16-14~-12h14~~~-12h14p12~~~-|
D|-------------*|-------------------------------------------------|
A|--------------|-------------------------------------------------|
E|--------------|-------------------------------------------------|
 repeat 6 times    

E|--------------------------------------------------------|
B|--------------------------------------------------------|
G|---------------------------------12-14-14-12-14~~~-12~~~|
D|-12h14~~-12----------------12-14------------------------|
A|------------14-12----12-14------------------------------|
E|------------------15------------------------------------|

E|----------12----------------------------------------14-|
B|-------12----12-15~b(17)~~(17)~~~-15b17r15-13-12-13----|
G|-14b16-------------------------------------------------|
D|-------------------------------------------------------|
A|-------------------------------------------------------|
E|-------------------------------------------------------|

E|-14b15~~r14-----15b17~~-15-14-14---------------|
B|------------12-------------------15-15-12-12~~-|
G|-----------------------------------------------|
D|-----------------------------------------------|
A|-----------------------------------------------|
E|-----------------------------------------------|

E|-22b24~--22-20-19~-20------------22b24~~-22-20-19~~20----------|
B|----------------------20~~19~~------------------------20~~~-20-|
G|---------------------------------------------------------------|
D|---------------------------------------------------------------|
A|---------------------------------------------------------------|
E|---------------------------------------------------------------|

E|-22b24-22~~-19~-19h20-----------22---------------------------|
B|----------------------19~~~b20~~~~~(20)r19-------------------|
G|--------------------------------------------21-19----19-21~~~|
D|--------------------------------------------------21---------|
A|-------------------------------------------------------------|
E|-------------------------------------------------------------|

E|----------------------------------19-19----22~~~------|
B|----------------------------------------20-------19~~-|
G|--19----------------------21~~~-----------------------|
D|-----21-19~~---19-21----------------------------------|
A|------------22-------19~~~----------------------------|
E|------------------------------------------------------|

E|-------------------------------------------------------|
B|-20h22~-20~~19~-20-------------------------------------|
G|-------------------19~~-21~~-----19--------------------|
D|----------------------------21~~----22~-21~~~-22-17~~~~|
A|-------------------------------------------------------|
E|-------------------------------------------------------|

E|-----------------------------------------22----------------------------|
B|----------------------20~~19b20~~~~19b20~~~~(20)r19~-------------------|
G|------------------19~~-------------------------------21-------19-21~~~-|
D|--------17-19-21~~--------------------------------------19-21----------|
A|--17-19----------------------------------------------------------------|
E|-----------------------------------------------------------------------|

E|----------22-------------------------------|
B|-22b24~~~----22b24-22~~~---22b24-22-20~~~~-|
G|-------------------------------------------|
D|-------------------------------------------|
A|-------------------------------------------|
E|-------------------------------------------|

E|----------22-----------------------------------------------|
B|--22b24~~~---22b24-22~~~~-22b24-22-19b20r19~~~-------------|
G|-----------------------------------------------19-17h19~~~~|
D|-----------------------------------------------------------|
A|-----------------------------------------------------------|
E|-----------------------------------------------------------|

E|---------------------------------------------------------|
B|-------------19-19-20-20-19-19----------------------19~~-|
G|-------------------------------19------------------------|
D|-------21-21----------------------21-------------21------|
A|-19-22-------------------------------22-22-19-19---------|
E|---------------------------------------------------------|

E|---------------19-------------------------------|
B|-20~~-20-19-20----20-19-19----------------------|
G|---------------------------19-19----------------|
D|---------------------------------21-\19~~~-17~~~|
A|------------------------------------------------|
E|------------------------------------------------|

E|----------------------|---------------------------------------------|
B|------17~~~-----------|---------------------------------------------|
G|-----------19~~~16~~~-|--------11-11-12-12-14-14-/16-14-12h14p12----|
D|--19~~----------------|--14-14-----------------------------------14-|
A|----------------------|---------------------------------------------|
E|----------------------|---------------------------------------------|
   (these two measures at half time)


E|-15-14----15-12------15-14----15-14-------15-14----15-14-|
B|-------15-------12~~~------15-------15----------15-------|
G|---------------------------------------12----------------|
D|---------------------------------------------------------|
A|---------------------------------------------------------|
E|---------------------------------------------------------|
   (back to regular tempo)

E|--------------------------------------------------12-|
B|-15----15----15----15--------------------------------|
G|----12----12----11---------------------12-11~~-12----|
D|----------------------14~~~~--------14---------------|
A|-----------------------------------------------------|
E|-----------------------------12-15~~-----------------|

E|------12-------------------------------------------------------------------|
B|-15~~----12~~--------------------------------------------------------------|
G|--------------12h14p12~\11-b(12)r11----------------------------------------|
D|------------------------------------14-------------------------------------|
A|---------------------------------------12h14~~-12h14p12-\10~~-9-10-9-------|
E|---------------------------------------------------------------------12~~~-|
                           pre-bend

E|--------------------------------------------------------|
B|---------------------------------------------8p7--------|
G|-----------------------------------------7h9----9~~p7~~~|
D|----------------7h9~~~~--------------7-9----------------|
A|-------7-9-10~~~-------------7-9-10~--------------------|
E|--7-10------------------7-10----------------------------|

E|-----------------------------------------------7-10-7-|
B|------------------------------7-7h8~-7-----7-8--------|
G|---------------------7---7h9~----------9-7------------|
D|-----------7----7h9~---9------------------------------|
A|------7-10---10---------------------------------------|
E|-7-10-------------------------------------------------|



E|-8-7-8-10~~8-7~~~---7~~-10-12-12~-10tr12--7tr10-------------------------|
B|-----------------10------------------------------8tr10--8\7-7~~h8p7~----|
G|--------------------------------------------------------------------7---|
D|----------------------------------------------------------------------9-|
A|------------------------------------------------------------------------|
E|------------------------------------------------------------------------|
                                    (trill these 3 patterns)

E|---------------------------------------------|
B|---------------------------------------7/8~~-|
G|--7h9p7~~------------------------------------|
D|----------7h9p7\5~~-7/9~~~--5h7p5\4~~--------|
A|---------------------------------------------|
E|---------------------------------------------|

E|-------19~~~-19p14-15~~~15-14------|
B|----17------------------------17~~~|
G|-16--------------------------------|
D|-----------------------------------|
A|-----------------------------------|
E|-----------------------------------|

E|----14b15~-14---------15b17~~15-14~~--|----14b15r14~----------------------|
B|-12-----------12~~-12----------------*|-12-----------15~~-----------------|
G|--------------------------------------|------------------11-12-11-12-11~~-|
D|-------------------------------------*|-----------------------------------|
A|--------------------------------------|-----------------------------------|
E|--------------------------------------|-----------------------------------|
   repeat 3 times

E|-------------------17-14-14~~~------------------------------|
B|------------------------------17-15-17~~---------15---------|
G|-------14/16~~--16-----------------------14-14~~-----17--16-|
D|----12------------------------------------------------------|
A|-14---------------------------------------------------------|
E|------------------------------------------------------------|

E|--17-17-17-19-19-14-14----------------------------------|
B|-----------------------17-17-------15-15----------------|
G|-----------------------------14-14-------17-17-16-16-17-|
D|--------------------------------------------------------|
A|--------------------------------------------------------|
E|--------------------------------------------------------|

E|----------------------------------------------------------|
B|----------------------------------------------------------|
G|--16~~------14~~~-----------------------------------------|
D|------14-14------------14~~~------------------------------|
A|-----------------14-14------10-10-10-h12-/14-14~~~~-14-14-|
E|----------------------------------------------------------|

E|-----------------------------------------------------------14-14-|
B|-----------------------------------------------------12-12-------|
G|-----------14-14-12-12-12-11-11-11-------------------------------|
D|--12-12-12-------------------------14-14-14----------------------|
A|--------------------------------------------12-12-12-------------|
E|-----------------------------------------------------------------|
    (killswitch effect)

E|-12-12-12----------12-12-15-15-------------------|
B|----------12-12-12-------------12-12-15-15-------|
G|-------------------------------------------12-12-|
D|-------------------------------------------------|
A|-------------------------------------------------|
E|-------------------------------------------------|

E|-------------------------------------------------|
B|-------------------------------------------------|
G|-11-11-11----------------------------------------|
D|----------14-14-14-------12-12-------------------|
A|-------------------14-14-------10-10-------------|
E|-------------------------------------10-10-12-12-|

E|-----------------------------------------------|
B|-----------------------------------------12-12-|
G|-----------------------11-11-11----------------|
D|-------------------9-9----------12-12-12-------|
A|-10-10-10--------------------------------------|
E|----------12-12-12-----------------------------|

E|----------12-12-12-------14-14-15-15-------15-15~~|
B|-------------------15-15-------------15-15--------|
G|-14-14-14-----------------------------------------|
D|--------------------------------------------------|
A|--------------------------------------------------|
E|--------------------------------------------------|

E|----------------------------------------------------------------------|
B|-15-15-15-------------------------------------------------------------|
G|----------12-12-11-11-11-------------------12-12-11-11----------------|
D|-------------------------14-14-------------------------14-14----------|
A|-------------------------------12-12-14-14-------------------12/14~~--|
E|----------------------------------------------------------------------|

E|---------------------------------------------------------------|
B|---------------------------------------------------------------|
G|------------------------------------------14-12-12-------------|
D|------------------------------------12-14----------12-14-14~~~~|
A|-12h14~~12--------------------12-14----------------------------|
E|-----------15-14~~15~~~-12-15----------------------------------|

E|-------------------------------------------------|
B|-------------------------------------------------|
G|-12-12-12-\11-11-11-11/12-12-14-14~~~12-14/16~~~-|
D|-------------------------------------------------|
A|-------------------------------------------------|
E|-------------------------------------------------|

E|-------------------------------------------------------------|
B|-------------------------------------------------------12~~~~|
G|---------------12-11~~~12-----------------------12-12--12~~~~|
D|-------12-14~~~-----------12~~~~~~------12-14~~--------------|
A|-------------------------------------------------------------|
E|-12-15----------------------------12-15----------------------|

E|-------15-15--------15-------14~~b15~~-------------|
B|-(12)~~~~~~~~12~~~~----12~~~--------------15b17~~~-|
G|-(12)~~~~~~~---------------------------------------|
D|---------------------------------------------------|
A|---------------------------------------------------|
E|---------------------------------------------------|

E|------------10---------------------|-----------------------------------------|
B|-----7h8h10----10p8-7-------------*|----------------------------------------*|
G|----------------------7----7h9-9---|-------------12--------------------------|
D|------------------------9---------*|-----9h10h12----12p10-9-----------------*|
A|-----------------------------------|-0----------------------10-----10h12-12--|
E|-0---------------------------------|---------------------------12------------|
comments
print report bad tab
6 comments total. Showing first comments.
0 reply
henkka_potku wrote on April 2 2009, 11:31 am

now guitar pro

0 reply
xHellbound wrote on April 2 2009, 06:35 pm

Finally!! And yes, make a guitar pro version for us lazy people!

0 reply
kaboosemcpwn wrote on April 24 2009, 01:29 am

guitar pro please! :]

I want to post or [tab]
guest
You may want to rate the tab now too:
select rating
Please do not post tabs as comments. Select "correction" instead!