Oops, an error
Loading. Please wait.

Untitled Live Tab

ver1
ver1

Whole song

Interactive

More versions @911Tabs.com
2,097 views 3 this week
no commentswrite comment
1 2 3 4 5
excellent!
x 1
Autoscroll
+/-
esc
set tempo
stop
Contributor
Hey! There's an official Ultimate Guitar app which is ideal
for learning songs when you're away from computer. Get the app
WARNING: You are trying to view
                                    content from Ultimate-Guitar.com
                                    in an unauthorized application,
                                    which is prohibited.

                                    Please use an official Ultimate
                                    Guitar Tabs application for iPhone,
                                    iPad or Android to access legitimate
                                    chords, guitar, bass, and drum tabs
                                    from Ultimate-Guitar.com database.

                                    Type "ultimate guitar tabs" in Apple
                                    App Store's or Android Market's
                                    search to find the application.
-------------------------------------------------------------------------------
                 Untitled Song (Live at the GAMH) - Buckethead 
-------------------------------------------------------------------------------

Tabbed by: Emmerhoofd
Email:

Tuning: Eb Ab Db Gb Bb eb

               S  S  S  S E   E  E   S  S  S  S E   
||-------|---8--8--8--8-----7------7--7--7--7----|
||-------|---8--8--8--8-----8------8--8--8--8----|
||-------|--10-10-10-10----10-----10-10-10-10----|
||-------|--10-10-10-10----10-----10-10-10-10----|
||-------|---8--8--8--8--------------------------|
||-------|---8--8--8--8--------------------------|


   S  S  S  S E   E  E   S  S  S  S E      S  S  S  S E   E  E   S  S  S  S E   
---8--8--8--8-----7------7--7--7--7----|--12-12-12-12--------------------------|
---8--8--8--8-----8------8--8--8--8----|--13-13-13-13----12-----12-12-13-13----|
--10-10-10-10----10-----10-10-10-10----|--14-14-14-14----12-----12-12-12-14----|
--10-10-10-10----10-----10-10-10-10----|--14-14-14-14----12-----12-12-14-14----|
---8--8--8--8--------------------------|--12-12-12-12----12-----12-12-12-12----|
---8--8--8--8--------------------------|--12-12-12-12--------------------------|


   S  S  S  S E   E  E   S  S  S  S E      S  S  S  S E   E  E   S  S  S  S E   
--12-12-12-12--------------------------|---8--8--8--8-----7------7--7--7--7----|
--13-13-13-13----12-----12-12-13-13----|---8--8--8--8-----8------8--8--8--8----|
--14-14-14-14----12-----12-12-12-14----|--10-10-10-10----10-----10-10-10-10----|
--14-14-14-14----12-----12-12-14-14----|--10-10-10-10----10-----10-10-10-10----|
--12-12-12-12----12-----12-12-12-12----|---8--8--8--8--------------------------|
--12-12-12-12--------------------------|---8--8--8--8--------------------------|


   S  S  S  S E   E  E   S  S  S  S E      S  S  S  S E   E  E   S  S  S  S E   
---8--8--8--8-----7------7--7--7--7----|--12-12-12-12--------------------------|
---8--8--8--8-----8------8--8--8--8----|--13-13-13-13----12-----12-12-13-13----|
--10-10-10-10----10-----10-10-10-10----|--14-14-14-14----12-----12-12-12-14----|
--10-10-10-10----10-----10-10-10-10----|--14-14-14-14----12-----12-12-14-14----|
---8--8--8--8--------------------------|--12-12-12-12----12-----12-12-12-12----|
---8--8--8--8--------------------------|--12-12-12-12--------------------------|


   S  S  S  S E   E  E   S  S  S  S E      Q    S   E  E.  E  E   E   
--12-12-12-12--------------------------|-------------------8---------|
--13-13-13-13----12-----12-12-13-13----|---8-----------8------8------|
--14-14-14-14----12-----12-12-12-14----|--10----9h-10------------10--|
--14-14-14-14----12-----12-12-14-14----|--10-------------------------|
--12-12-12-12----12-----12-12-12-12----|---8-------------------------|
--12-12-12-12--------------------------|---8-------------------------|


                                      PM        PM    PM PM        PM           
   Q    S   E  E.  E  E   S.T    E  S S   S   S S   S S  S   S   S S   S   E    
-------------------7----------|------------------------------------------------|
---8-----------8------8-------|----------13p-12--------------------------------|
--10----9h-10------------10---|--------------------12-----------------12h-14~--|
--10--------------------------|-----------------------------12h-14-------------|
---8--------------------------|--0----0---------0-----0--0---------0-----------|
---8--------------------------|------------------------------------------------|


       PM        PM    PM PM        PM                                         
  E  S S   S   S S   S S  S   S   S S   S   E       Q    S   E  E.  E  E   E   
------------------------------------------------|-------------------8---------|
----------13p-12--------------------------------|---8-----------8------8------|
--------------------12-----------------12h-14~--|--10----9h-10------------10--|
-----------------------------12h-14-------------|--10-------------------------|
--0----0---------0-----0--0---------0-----------|---8-------------------------|
------------------------------------------------|---8-------------------------|


                                      PM        PM    PM PM        PM           
   Q    S   E  E.  E  E   S.T    E  S S   S   S S   S S  S   S   S S   S   E    
-------------------7----------|------------------------------------------------|
---8-----------8------8-------|----------13p-12--------------------------------|
--10----9h-10------------10---|--------------------12-----------------12h-14~--|
--10--------------------------|-----------------------------12h-14-------------|
---8--------------------------|--0----0---------0-----0--0---------0-----------|
---8--------------------------|------------------------------------------------|


       PM        PM    PM PM        PM           
  E  S S   S   S S   S S  S   S   S S   S   E    
------------------------------------------------|
----------13p-12--------------------------------|
--------------------12-----------------12h-14~--|
-----------------------------12h-14-------------|
--0----0---------0-----0--0---------0-----------|
------------------------------------------------|


   S  S  S  S E   E  E   S  S  S  S E      W                 
---8--8--8--8-----7------7--7--7--7----|---8----------------|
---8--8--8--8-----8------8--8--8--8----|---8----------------|
--10-10-10-10----10-----10-10-10-10----|--10----------------|
--10-10-10-10----10-----10-10-10-10----|--10----------------|
---8--8--8--8--------------------------|---8----------------|
---8--8--8--8--------------------------|---8----------------|


  ^                       ^                       ^                      
  H        E  E  E  E     H        E  E  E  E     Q.     E  E  E  E  E   
-----------0-----------|--------------0--------|--0---------0-----------|
--1-----------1--------|--3--------3-----3-----|--1------1-----1--------|
--0--------------0-----|--0-----------------0--|--2------2--------2-----|
--2-----------------2--|--0--------------------|--2------2-----------2--|
--3--------------------|--2--------------------|--0---------------------|
-----------------------|--3--------------------|------------------------|


                            ^                         ^                     
  E  E  E  Q    E  E  E     Q.     E  E  E    Q       Q.     E  E  E  Q     
--3--------3-------------|--1------1--1--3--3g5----|--0---------0----------|
-----1----------1--------|--3------3---------------|--1------------1-------|
--------2----------2-----|--2------2---------------|--2---------------2----|
----------------------2--|--0----------------------|--2------2-------------|
-------------------------|-------------------------|--0------0-------------|
-------------------------|-------------------------|-----------------------|


  ^                       ^                        ^                     
  H        E  E  E  E     Q.     E  E  E  E  E     H        E  E  E  E   
-----------3-----------|---------------0--------|-----------0-----------|
--3-----------3--------|------------3-----3-----|--1-----------1--------|
--0--------------0-----|---------0-----------0--|--0--------------0-----|
--0-----------------0--|--0---------------------|--2-----------------2--|
--2--------------------|--0---------------------|--3--------------------|
--3--------------------|--2---------------------|-----------------------|


  ^                       ^                                                
  H        E  E  E  E     Q.     E  E  E  E  E     E  E  E  Q    E  E  E   
--------------0--------|--0---------0-----------|--3--------3-------------|
--3--------3-----3-----|--1------1-----1--------|-----1----------1--------|
--0-----------------0--|--2------2--------2-----|--------2----------2-----|
--0--------------------|--2------2-----------2--|----------------------2--|
--2--------------------|--0---------------------|-------------------------|
--3--------------------|------------------------|-------------------------|


  ^                         ^                       ^                     
  Q.     E  E  E    Q       Q.     E  E  E  Q       H        E  E  E  E   
--1------1--1--3--3g5----|--0---------0----------|-----------3-----------|
--3------3---------------|--1------------1-------|--3-----------3--------|
--2------2---------------|--2---------------2----|--0--------------0-----|
--0----------------------|--2------2-------------|--0-----------------0--|
-------------------------|--0------0-------------|--2--------------------|
-------------------------|-----------------------|--3--------------------|


  ^                        ^                       ^                     
  Q.     E  E  E  E  E     H        E  E  E  E     H        E  E  E  E   
---------------0--------|-----------0-----------|--------------0--------|
------------3-----3-----|--1-----------1--------|--3--------3-----3-----|
---------0-----------0--|--0--------------0-----|--0-----------------0--|
--0---------------------|--2-----------------2--|--0--------------------|
--0---------------------|--3--------------------|--2--------------------|
--2---------------------|-----------------------|--3--------------------|


  ^                                                  ^                       
  Q.     E  E  E  E  E     E  E  E  Q    E  E  E     Q.     E  E  E    Q     
--0---------0-----------|--3--------3-------------|--1------1--1--3--3g5----|
--1------1-----1--------|-----1----------1--------|--3------3---------------|
--2------2--------2-----|--------2----------2-----|--2------2---------------|
--2------2-----------2--|----------------------2--|--0----------------------|
--0---------------------|-------------------------|-------------------------|
------------------------|-------------------------|-------------------------|


  ^                       ^                       ^                      
  Q.     E  E  E  Q       H        E  E  E  E     Q.     E  E  E  E  E   
--0---------0----------|-----------3-----------|---------------0--------|
--1------------1-------|--3-----------3--------|------------3-----3-----|
--2---------------2----|--0--------------0-----|---------0-----------0--|
--2------2-------------|--0-----------------0--|--0---------------------|
--0------0-------------|--2--------------------|--0---------------------|
-----------------------|--3--------------------|--2---------------------|


   S  S  S  S E   E  E   S  S  S  S E      S  S  S  S E   E  E   S  S  S  S E   
---8--8--8--8-----7------7--7--7--7----|---8--8--8--8-----7------7--7--7--7----|
---8--8--8--8-----8------8--8--8--8----|---8--8--8--8-----8------8--8--8--8----|
--10-10-10-10----10-----10-10-10-10----|--10-10-10-10----10-----10-10-10-10----|
--10-10-10-10----10-----10-10-10-10----|--10-10-10-10----10-----10-10-10-10----|
---8--8--8--8--------------------------|---8--8--8--8--------------------------|
---8--8--8--8--------------------------|---8--8--8--8--------------------------|


   S  S  S  S E   E  E   S  S  S  S E      S  S  S  S E   E  E   S  S  S  S E   
--12-12-12-12--------------------------|--12-12-12-12--------------------------|
--13-13-13-13----12-----12-12-13-13----|--13-13-13-13----12-----12-12-13-13----|
--14-14-14-14----12-----12-12-12-14----|--14-14-14-14----12-----12-12-12-14----|
--14-14-14-14----12-----12-12-14-14----|--14-14-14-14----12-----12-12-14-14----|
--12-12-12-12----12-----12-12-12-12----|--12-12-12-12----12-----12-12-12-12----|
--12-12-12-12--------------------------|--12-12-12-12--------------------------|


   S  S  S  S E   E  E   S  S  S  S E      S  S  S  S E   E  E   S  S  S  S E   
---8--8--8--8-----7------7--7--7--7----|---8--8--8--8-----7------7--7--7--7----|
---8--8--8--8-----8------8--8--8--8----|---8--8--8--8-----8------8--8--8--8----|
--10-10-10-10----10-----10-10-10-10----|--10-10-10-10----10-----10-10-10-10----|
--10-10-10-10----10-----10-10-10-10----|--10-10-10-10----10-----10-10-10-10----|
---8--8--8--8--------------------------|---8--8--8--8--------------------------|
---8--8--8--8--------------------------|---8--8--8--8--------------------------|


   S  S  S  S E   E  E   S  S  S  S E      S  S  S  S E   E  E   S  S  S  S E   
--12-12-12-12--------------------------|--12-12-12-12--------------------------|
--13-13-13-13----12-----12-12-13-13----|--13-13-13-13----12-----12-12-13-13----|
--14-14-14-14----12-----12-12-12-14----|--14-14-14-14----12-----12-12-12-14----|
--14-14-14-14----12-----12-12-14-14----|--14-14-14-14----12-----12-12-14-14----|
--12-12-12-12----12-----12-12-12-12----|--12-12-12-12----12-----12-12-12-12----|
--12-12-12-12--------------------------|--12-12-12-12--------------------------|


  ^                                                                       
  H         Q      E.     S    S  S S  S  S S S   S  S  S S S S S   S  S  
----------------------------|--------------------------------------------|
----------------------------|-------------------------------------/10----|
--7b--------7pb-----pb~---5-|--7p-5-4h-5p-4-------------------5----------|
--x-------------------------|---------------7---5g7~--~------------------|
--x-------------------------|--------------------------------------------|
----------------------------|--------------------------------------------|


   Q      Q      Q      Q         Q     E   E    E   E   Q      
------------------------------|---------8--10--/12-------------|
----~----10~----10~----10~----|--10~----------------10--10~----|
------------------------------|--------------------------------|
------------------------------|--------------------------------|
------------------------------|--------------------------------|
------------------------------|--------------------------------|


   Q     S  S  S  S   Q     S   S  S  S  
--15----13----12-12~--------------------|
---------------------------13p-12-------|
----------------------------------14----|
----------------------------------------|
----------------------------------------|
----------------------------------------|


   Q     S  S  S  S   S  S  S  S  S   S  S  S  
--15----13----12-12~--------------------------|
---------------------------15-13-15b----------|
----------------------------------------------|
----------------------------------------------|
----------------------------------------------|
----------------------------------------------|


   |-----3----|   |---3---|   |-----3----|   |----3---|   
   E   E      E   E   E   E   E      E   E   E    E   E   
--15-----------------------------------------------------|
------15pbr------13--15--13--12pbr-----------------------|
----------------------------------------14----~----------|
---------------------------------------------------------|
---------------------------------------------------------|
---------------------------------------------------------|


                   |---3---|              
      S  S  S  S   E   E   E   H          
-----------------------------------------|
-----------------------------------------|
-----------------------------------------|
--12g10----10-12-/14--10-----------------|
--------------------------12----~--------|
-----------------------------------------|


   Q      S  S  S  S   Q     S  S  S  S  
----------------------------------------|
--20b----20-------17~-------17-18-------|
----------------------------------17----|
----------------------------------------|
----------------------------------------|
----------------------------------------|


   Q      S  S  S  S     S  S  S   S  S  S  S  S  
-------------------------------------------------|
---------------20--------------------------------|
--19b-------------19pbr-------19p-17-19----17----|
----------------------------------------------19-|
-------------------------------------------------|
-------------------------------------------------|


   |---6--|  |---6--|                |---6--|  |---6--|                
   S   S  S  S   S  S  S   S  S   S  S   S  S  S   S  S  S   S  S   S  
----------------------------------------------------------------------|
----------------------------------------------------------------------|
--17~------------------------17h-19-17~------------------------17h-19-|
------------19p-17----17h-19------------------19p-17----17h-19--------|
-------------------19--------------------------------19---------------|
----------------------------------------------------------------------|


   S    S  S  S   S  S  S  S  S  S  S  S  S  S    S  S  
-----------------------------------------17-19br-------|
----------20-----------------------17-20---------------|
--19br-------19b---------------------------------------|
-------------------------------------------------------|
-------------------------------------------------------|
-------------------------------------------------------|


   S  S  S  S   S  S  S    S  S  S  S   S  S  S  S  S  
------------------------------------------------------|
--------20--------------------------------------------|
-----------17~-------16br-----------------------------|
--------------------------------19---~----17----------|
---------------------------------------------19-17-15-|
------------------------------------------------------|


   S    S  S  S  S   S  S  S  E    S  S Q      
----------------------------------------------|
----------------------------------------------|
----------------------------------------------|
----------------------------------------------|
--17br-------15-17p-15----15---~--------------|
-----------------------17---------------x\----|


                                                                   ^            
   X   X  X  X  X  X  X  X  X  X  X  X  X  X  X  X  X  X  X  X  X  X    X  X  X 
--------------------------------------------------------------------------------
--15b-------------------------------------------------------------15pb----------
--------------------------------------------------------------------------------
--------------------------------------------------------------------------------
--------------------------------------------------------------------------------
--------------------------------------------------------------------------------


   S   S  S  S   S  S  S     S  S  S  S     S  Q      
-----------------------------------------------------|
--15p-13---------------------------------------------|
---------14-14~-------12-----------------------------|
-------------------------14g12-12-10-12-12g14-10~----|
-----------------------------------------------------|
-----------------------------------------------------|


    |---6--|  |--6--|  |-------7------|  |------7------|   |-----7-----|   |----
    S   S  S  S  S  S  S   S   S   S  S  S  S  S   S   S   S  S  S   S S   S  S 
---13p----10----10-13-12h-13p-12p-10----10-13-12h-13p-12p-10--------------------
-------------13----------------------13----------------------13--x\-------------
--------------------------------------------------------------------10-9h-10p-9p
--------------------------------------------------------------------------------
--------------------------------------------------------------------------------
--------------------------------------------------------------------------------


  |-6-| |--6-| |---6---| |---6---|     |------7------|  7  7 ---- 10  10 --- 7  
  S S S S S  S S   S   S S   S   S     S  S   S   S  S  S  S  T   T   T   S  S  
--------------------------------------------------------------------------------
-----------------------------------------10h-12p-10----10-13-12h-13p-12p-10-----
-------------------------9h-10h-12-13g12------------13----------------------12p-
------------12-9h-10h-12--------------------------------------------------------
--------------------------------------------------------------------------------
--------------------------------------------------------------------------------


   7  7   7   7  7  7  7  7   7   7   7  7 7  7  7  7  7  7 7  7  7  7  7  7   7
   S  S   S   S  S  S  S  S   S   S   S  S S  S  S  S  S  S S  S  S  S  S  S   S
--------------------------------------------------------------------------------
-----10h-12p-10----10-13-12h-13p-12p-10------------10-12-13---------10-13-12h-13
--13------------12----------------------12-9-10-12----------9-10-12-------------
--------------------------------------------------------------------------------
--------------------------------------------------------------------------------
--------------------------------------------------------------------------------


   ^          ^         ^          ^                                 
   7   7   7  7   7  7  7   7   7  7   7  7  7  7                    
   S   S   S  S   S  S  S   S   S  S   S  S  S  S  Q      S  S S S   
--------------------------------------------------------------------|
--13p-12p-10-----------13p-12p-10-----------12-13-15b~----x\-----8b-|
-------------12p-10p-9------------12p-10p-9-------------------------|
--------------------------------------------------------------------|
--------------------------------------------------------------------|
--------------------------------------------------------------------|


  7 7 7 7 7  7  7 7 7 7 7  7  7  7  7 7  7   7  7  7  7  7   7   7  7  7  7  7  
  S S S S S  S  S S S S S  S  S  S  S S  S   S  S  S  S  S   S   S  S  S  S  S  
----------5h-7p-5---5-8-7h-8p-7p-5p-0-7h-8h-10p-0-10-13-12h-13p-12-10----10-13-|
------5-8---------8---------------------------------------------------13-------|
-------------------------------------------------------------------------------|
-------------------------------------------------------------------------------|
-------------------------------------------------------------------------------|
-------------------------------------------------------------------------------|


   7   7   7   7   7  7  7   7   7  7   7  7  7  7                              
   S   S   S   S   S  S  S   S   S  S   S  S  S  S  T  T  T  T  T  T  T  T  T  T
--10h-12h-13p-12p-10----------------------------------------12-13-15----------12
---------------------13-10h-12p-10-----------------12-13-15----------12-13-15---
-----------------------------------12p-10p-9-10-12------------------------------
--------------------------------------------------------------------------------
--------------------------------------------------------------------------------
--------------------------------------------------------------------------------


   T  T  T  T  T  T  T  T  T  T  T  T  T  T  T  T  T  T  T  T  T  T  T  T  T   T
--15-17----------13-15-17----------13-15-17----------17-19-17----17-20-17-19h-20
--------13-15-17----------13-15-17----------17-18-20----------20----------------
--------------------------------------------------------------------------------
--------------------------------------------------------------------------------
--------------------------------------------------------------------------------
--------------------------------------------------------------------------------


   T  T  T  T  T  T  T  T   T   T  T  T  T  T   T   T  T  T  T  T  T  T  T  T  T
--19-17-------------------------------------------------------------------------
--------20-17-15-18-15-17h-18p-17-15-18-15-17h-18p-17-15------------------------
---------------------------------------------------------17-16-14-16-17-14-17-14
--------------------------------------------------------------------------------
--------------------------------------------------------------------------------
--------------------------------------------------------------------------------


   T  T  T  T  T  T  T  T  T  T  T  T  T  T  T   T   T  T  T  T  T  T  T  T  T  
--------------------------------------------------------------------------------
--------------------------------------------------------------------------------
--------14-16-17----------14-16-17-14-17-14-16h-17p-16-14-----------------------
--15-17----------14-15-17---------------------------------17-15-14-15-17-15-14--
-------------------------------------------------------------------------------1
--------------------------------------------------------------------------------


                                 ^       W              
   T  T  T  T  T  T  T  T  T  T  Q       E   E   E  E   
-------------------------------------------------------|
-------------------------------------------------------|
--------------14-16-17-16-17-19-19b~------\--x\--------|
--17-14-15-17--------------------x---------------------|
---------------------------------x---------------------|
-------------------------------------------------------|


   S   S  S  S  S  S  S     S  H         
---------------15-----------------------|
--15b----------------15pb~--------------|
----------------------------------------|
----------------------------------------|
----------------------------------------|
----------------------------------------|


   S    S  S  S  S   S   S  S   Q     Q      
--------------------------------------------|
--15br----------13h-15p-13-12b---------~----|
--------------------------------------------|
--------------------------------------------|
--------------------------------------------|
--------------------------------------------|


                  |-3-|                                               
  S  S S S S    S S S S S S S S  Q       S  S  S S Q     E  E  E  E   
--------------------------------------|------------------------------|
--------------------------------------|---------------------------8--|
--7b-------7pbr---5-7---5-----5~------|--4h-5p-4---------------5-----|
--------------------------7-----------|----------7--~----------------|
--------------------------------------|---------------------0--------|
--------------------------------------|------------------------------|


  E  E  E    E   E  E   E    E      Q        S     S S  S   Q     S  S S S  
--------------------8--10b------|--10pb~----10pbr----8---------------------|
-----------/10------------------|----------------------10~-------10p-8-5---|
--------5-----------------------|------------------------------------------|
--------------------------------|------------------------------------------|
-----0--------------------------|------------------------------------------|
--------------------------------|------------------------------------------|


  S  S  S  S S S S S S S  S S S S S S  
--------------------------------------|
--5h-6p-5h-6-5------------------------|
-----------------7-5---5s-9---9-------|
---------------------7------------7---|
--------------------------------------|
--------------------------------------|


  S   S S   S S   S  S S  S S S  S S  S  S  S  
----------------------------------------------|
-------------------------------------10-13----|
-----------------------------------9----------|
--9h-10-9h-10-9h-10p-9-7~-----9-10------------|
----------------------------------------------|
----------------------------------------------|


   Q     S  S  S S S S    S  S  S S S S  
----------------------------------------|
--10----10-12----8-----8g10-------------|
----------------------------------9-----|
----------------------------------------|
----------------------------------------|
----------------------------------------|


  S  S S S S  S  S S S  S S S S S S  S    Q    S S S S S S S S S S S  S  
---------------------------------------|--------------------------------|
---------------------------------------|-------------5------------------|
--7h-9-7-5-4h-5p-4--------------5-7b---|-----------------5-7-5---5-7p-5-|
-------------------7--p-5---5-7--------|-----------------------7--------|
--------------------------7------------|--------------------------------|
---------------------------------------|--------------------------------|


  Q     Q    S S S S Q        Q    Q     Q     Q      
---------------------------|-------------------------|
--------5------5-8-5-8b----|--------~-----~-----~----|
--7b-----------------------|-------------------------|
---------------------------|-------------------------|
---------------------------|-------------------------|
---------------------------|-------------------------|


  S   S S S   S S S    S S S S S S   S S S  
-------------------------------------------|
--8pb-----8pb-----8pb~-----------8pb-------|
-------------------------------------------|
-------------------------------------------|
-------------------------------------------|
-------------------------------------------|


                         |--3--|           
  S S S S    S S S S S S S  S  S S S S  S  
--8---------------------------------------|
--------8pbr-----8-------6h-8p-6-5---8b---|
------------------------------------------|
------------------------------------------|
------------------------------------------|
------------------------------------------|


                         |--3--|          
  S S S S    S S S S S S S  S  S S S S S  
--8--------------------------------------|
--------8pbr-----8-------6h-8p-6-5-6-8---|
-----------------------------------------|
-----------------------------------------|
-----------------------------------------|
-----------------------------------------|


  S S S S  S S S S S S  S S S  S  S S     Q    S S S S Q     E    E   
---------------------------------------|-----------------------------|
--5-6-8--------5-6-8-------------------|-------------------------\x--|
--------5~-----------5~-----4h-5p-4----|-----------------------------|
------------------------------------7~-|-------5---------------------|
---------------------------------------|---------7-5-3--~------------|
---------------------------------------|---------------------x\------|


   Q      S  S  S  S  S  S  S   S  S   S  S   S  
------------------------------------------------|
--15b----------15-13-------13p-12---------------|
----------------------------------14p-12--------|
-----------------------------------------14p-12-|
------------------------------------------------|
------------------------------------------------|


                                     |---3--|                
   S   S  S   S  S   S  S  S   S  S  S   S  S  S   S  S   S  
------------------------------------------------------------|
------------------------------------------------------------|
------------------------------------------------------------|
--12b----12p-10-12p-10----10~------------------------10h-12-|
-----------------------12-----------12p-10----10h-12--------|
-------------------------------------------12---------------|


   S  S  S  S  S  S  S   S  S  S  S  S  S  S  S  S  
---------------------------------------------------|
--------------13-12--------------------------------|
--------12-14-------14b-------------------14-12-14-|
--12-14--------------------------------------------|
---------------------------------------------------|
---------------------------------------------------|


   |---6--|  |---6---|   |---6---|   |---6---|   |---6--|   |--6--|         
   S   S  S  S   S   S   S   S   S   S   S   S   S   S  S   S  S  S  Q      
---------------------------------------------------------------------------|
---------------------------------------------------------------------------|
----~-------14p-12h-14p-12h-14p-12h-14p-12h-14p-12h-14-14S-16------/-x\----|
---------------------------------------------------------------------------|
---------------------------------------------------------------------------|
---------------------------------------------------------------------------|


   S  S   S  S  S  S  S     S  S  S  S  S  S  S  S  S  
------------------------------------------------------|
--17-20b-------------20pb~----------20----18----17----|
------------------------------------------------------|
------------------------------------------------------|
------------------------------------------------------|
------------------------------------------------------|


   S  S  S  S  S  S  S  S  S  S  S  S  S  S  S  S  
--------------------------------------------------|
--17-------18-------------------------------------|
--------------------17----------16----------17----|
--------------------------------------19----------|
--------------------------------------------------|
--------------------------------------------------|


   S  S  S  S  S  S  S   S  Q     S  S  S  S  
--19-----------------------------------------|
-----------20-------17~----------17----------|
---------------------------------------17----|
---------------------------------------------|
---------------------------------------------|
---------------------------------------------|


                                  |---6--|                 
   S  S  S  S  S  S  S   S  Q     S   S  S   T   T   T  T  
--19------------------------------------------------------|
-----------20-------17~-----------8h-10p-8h-10h-12p-10p-8-|
----------------------------------------------------------|
----------------------------------------------------------|
----------------------------------------------------------|
----------------------------------------------------------|


  T   T   T  T  T   T  T  T   T  T  T   T  T   T   T  T  T   T  T   T   T  T  T 
---------------12p-10p-x-----------12p-10p-8h-----------12p-10p-8h-----------12p
--8h-10h-12p-8-----------12p---p-x------------12p-10p-8------------12p-10p-8----
--------------------------------------------------------------------------------
--------------------------------------------------------------------------------
--------------------------------------------------------------------------------
--------------------------------------------------------------------------------


   T  T  T   T  T   T   T  T  T   T  T   T   T  T  T  T  T   T   T  T  S  S  S  
--------12p-10p-8h-----------12p-10p-8h-----------12-12-12h-13p-12-10-----------
--10p-8------------12p-10p-8------------12p-10p-8---------------------13-12-10-1
--------------------------------------------------------------------------------
--------------------------------------------------------------------------------
--------------------------------------------------------------------------------
--------------------------------------------------------------------------------


   ^                                              
   S  S  S  S   S  S  S  S  S S  S S  S  S  S  S  
-------------------------------------------------|
--12-------10~-----------------------------------|
---------------------12-------9~-----------------|
-------------------------------------10p-9-10p-9-|
-------------------------------------------------|
-------------------------------------------------|


   S   S  S  S   S  S S S Q    Q        Q     Q    Q    S S S S  
-------------------------------------|--------------------------|
-------------------------------------|--5-----------------------|
-------------------------------------|--7b------------------7-5-|
-------------------------------------|--------------------------|
--12~--------------------------------|--------------------------|
------------10h-12----8--------x\----|--------------------------|


                                      PM PM  
                 |--3--|                     
  S  S  S S S  S S  S  S  S S S S S S S  S   
--------------------------------------------|
--------------------------------------------|
--4h-5p-4----------(5)--------------5----5--|
----------7-5h-7-------7~-------------7-----|
--------------------------------------------|
--------------------------------------------|


                PM   PM             PM     PM                              
  Q       S S S S  S S   S S S S S  S    S S   S S S S S S S S  S  S Q     
--------------------------------------|-----------------------------------|
--------------------------------------|------------------8----------------|
--7~----7g9----------------7-9--------|----------7-9-----------10----9----|
----------------7--7-9--10---------10-|--7-9--10-------7------------------|
--------------------------------------|-----------------------------------|
--------------------------------------|-----------------------------------|


     PM  PM PMPM PM  PM   PM PM  PM PMPM PM  PM PM 
   S S   S  S S  S   S  S S  S   S  S S  S   S  S  
--------------8--8--------------------8--8--12-12-|
--10-8--10-10-------10-10-8--8--10-10-------------|
--------------------------------------------------|
--------------------------------------------------|
--------------------------------------------------|
--------------------------------------------------|


  PM PM  PM PM PMPM  PMPM PM PM PM PM PM PM PM PM  
  S  S   S  S  S S   S S  S  S  S  S  S  S  S  S   
--8--8--------------------------------------------|
--------12-12-10-8--10-8--8--8--6--6--5--6--8--6--|
--------------------------------------------------|
--------------------------------------------------|
--------------------------------------------------|
--------------------------------------------------|


  S S S S S S S S S S S S S S S S    S S S S S S S S S S S S S S S S  
----------------------------------|----------------------------------|
--5-6-8-5-6-8-5-6-8-5-6-8-5-6-8-5-|--6-8-5-6-8-5-6-8-5-6-8-5-6-8-5-6-|
----------------------------------|----------------------------------|
----------------------------------|----------------------------------|
----------------------------------|----------------------------------|
----------------------------------|----------------------------------|


                            PM   PM    
  S S S S S S S S S  S S  S S  S S  S  
--------------------------------------|
--8-5-6-8-5-6-8-6-5h-6-5h-6-5h-6-5h-6-|
--------------------------------------|
--------------------------------------|
--------------------------------------|
--------------------------------------|


                PM   PM   PM   PM   PM    
  S  S S S S  S S  S S  S S  S S  S S  S  
-----------------------------------------|
--5h-6-8-6-5h-6-5h-6-5h-6-5h-6-5h-6-5h-6-|
-----------------------------------------|
-----------------------------------------|
-----------------------------------------|
-----------------------------------------|


               PM   PM           PM PM      PM               PM PM           
  S S S S S  S S  S S  S S S S S S  S     S S  S S S S S S S S  S  S  Q      
---------------------------------------|------------------------------------|
--5-6-8-6-5h-6-5h-6-5h-6-5---5---------|------------------------------------|
---------------------------7---7-5--5--|--7-7--5----------------5--7-/9~----|
---------------------------------------|---------7-5-------5-7--------------|
---------------------------------------|-------------7-5-7------------------|
---------------------------------------|------------------------------------|


        PM PM  PM          PM PM PM             
  S S S S  S   S  S  S  S  S  S  S  S  S  S  S  
-----------------12-12-------------------------|
--8-8-8-------10-------13-10-13-10-13-10-13----|
--------9--9-----------------------------------|
-----------------------------------------------|
-----------------------------------------------|
-----------------------------------------------|


      PM                      PM                PM 
   S  S  S  S  S  S  S  S  S  S  S  S  S  S  S  S  
--------------------10-10-12-12-13-13-12-12-------|
--12-10-12-12-13-13-------------------------10-10-|
--------------------------------------------------|
--------------------------------------------------|
--------------------------------------------------|
--------------------------------------------------|


   PM                                           
   S  S  S S  S S S  S  S  S   S  S S  S S   S  
-----------------------------------------------|
--10-12-13-------------------------------------|
-----------9~-----9-10-12----------------------|
--------------------------10~-------9-10-9-----|
-------------------------------------------\12-|
-----------------------------------------------|


      S   S  S  S  S  S   S     S  Q      E   E    
--------------------------------------------------|
---------------------------------------------15b--|
----------------------------12g14---~-------------|
------------10----10-12S-14-----------------------|
--10g12~-------12---------------------------------|
--------------------------------------------------|


                                      ^                 
                         |--6--|  |---6--|              
   Q        S  S  S  S   S  S  S  S   S  S  S  S  S  S  
-------------------------------------------------------|
----pb~-------------15b-------13-15p-13----12-13-12----|
----------------------------------------------------14-|
-------------------------------------------------------|
-------------------------------------------------------|
-------------------------------------------------------|


                                      |---3--|                
   S   S  S  S     S  S  S  S   S  S  S   S  S  S   S  S   S  
-------------------------------------------------------------|
-------------------------------------------------------------|
--14~--------------------------------------------------------|
---------------14g12-------10~------------------------10h-12-|
-------------------------------------12p-10----10h-12--------|
--------------------------------------------12---------------|


          |---3--|                       |---3--|                
   S   S  S   S  S  S   S  S   S  S   S  S   S  S  S   S  S   S  
----------------------------------------------------------------|
----------------------------------------------------------------|
----------------------------------------------------------------|
--10~---------------------10h-12-10~---------------------10h-12-|
---------12p-10----10h-12---------------12p-10----10h-12--------|
----------------12-----------------------------12---------------|


   S   S  S  S  S   S  S  S   Q    Q         Q    S   E  E.  E  E   E   
-----------------------------------------|-------------------8---------|
-----------------------------------------|---8-----------8------8------|
-----------------------------------------|--10----9h-10------------10--|
--12b----------12p-10----10~-------------|--10-------------------------|
----------------------12-----------x\----|---8-------------------------|
-----------------------------------------|---8-------------------------|


                                      PM        PM    PM PM        PM           
   Q    S   E  E.  E  E   S.T    E  S S   S   S S   S S  S   S   S S   S   E    
-------------------7----------|------------------------------------------------|
---8-----------8------8-------|----------13p-12--------------------------------|
--10----9h-10------------10---|--------------------12-----------------12h-14~--|
--10--------------------------|-----------------------------12h-14-------------|
---8--------------------------|--0----0---------0-----0--0---------0-----------|
---8--------------------------|------------------------------------------------|


       PM        PM    PM PM        PM                                         
  E  S S   S   S S   S S  S   S   S S   S   E       Q    S   E  E.  E  E   E   
------------------------------------------------|-------------------8---------|
----------13p-12--------------------------------|---8-----------8------8------|
--------------------12-----------------12h-14~--|--10----9h-10------------10--|
-----------------------------12h-14-------------|--10-------------------------|
--0----0---------0-----0--0---------0-----------|---8-------------------------|
------------------------------------------------|---8-------------------------|


                                      PM        PM    PM PM        PM           
   Q    S   E  E.  E  E   S.T    E  S S   S   S S   S S  S   S   S S   S   E    
-------------------7----------|------------------------------------------------|
---8-----------8------8-------|----------13p-12--------------------------------|
--10----9h-10------------10---|--------------------12-----------------12h-14~--|
--10--------------------------|-----------------------------12h-14-------------|
---8--------------------------|--0----0---------0-----0--0---------0-----------|
---8--------------------------|------------------------------------------------|


       PM        PM    PM PM        PM           
  E  S S   S   S S   S S  S   S   S S   S   E    
------------------------------------------------|
----------13p-12--------------------------------|
--------------------12-----------------12h-14~--|
-----------------------------12h-14-------------|
--0----0---------0-----0--0---------0-----------|
------------------------------------------------|


   S  S  S  S E   E  E   S  S  S  S E      W                  
---8--8--8--8-----7------7--7--7--7----|---8----------------||
---8--8--8--8-----8------8--8--8--8----|---8----------------||
--10-10-10-10----10-----10-10-10-10----|--10----------------||
--10-10-10-10----10-----10-10-10-10----|--10----------------||
---8--8--8--8--------------------------|---8----------------||
---8--8--8--8--------------------------|---8----------------||




Duration Legend
---------------
W - whole
H - half
Q - quarter
E - 8th
S - 16th
T - 32nd
X - 64th
. - note dotted
|-n-|  - n-tuplets


Tablature -egend
----------------
L - tied note
x - dead note
g - grace note
(n) - ghost note
> - accentuded note
NH - natural harmonic
AH - artificial harmonic
TH - tapped harmonic
SH - semi harmonic
PH - pitch harmonic
h - hammer on
p - pull off
b - bend
br - bendRelease
pb - preBend
pbr - preBendRelease
brb - bendReleaseBend
\n/ - tremolo bar dip
\n - tremolo bar dive
-/n - tremolo bar Release up
/n\ - tremolo bar inverted dip
/n - tremolo bar return
-\n - tremolo bar Release down
S - shift slide
s - legato slide
/ -  slide into from below or out of upwards
\ -  slide into from above or out of downwards
~ - vibrato
W - wide vibrato
tr - trill
TP - tremolo picking
T - tapping
S - slap
P - pop
< - fade in
^ - brush up
v - brush down
comments
We did not receive enough feedback on this tab! Please rate:
print report bad tab
1 2 3 4 5
I want to post or [tab]
guest
You may want to rate the tab now too:
select rating
Please do not post tabs as comments. Select "correction" instead!