Oops, an error
Loading. Please wait.

Viva Voltron Tab

ver1
ver1

Whole song

Interactive

More versions @911Tabs.com
2,347 views 3 this week
no commentswrite comment
1 2 3 4 5
worth learning
x 2
Autoscroll
+/-
esc
set tempo
stop
Contributor
Difficulty
Tuning
novice
D# G# C# F# A# D#
Hey! There's an official Ultimate Guitar app which is ideal
for learning songs when you're away from computer. Get the app
WARNING: You are trying to view
                                    content from Ultimate-Guitar.com
                                    in an unauthorized application,
                                    which is prohibited.

                                    Please use an official Ultimate
                                    Guitar Tabs application for iPhone,
                                    iPad or Android to access legitimate
                                    chords, guitar, bass, and drum tabs
                                    from Ultimate-Guitar.com database.

                                    Type "ultimate guitar tabs" in Apple
                                    App Store's or Android Market's
                                    search to find the application.
half step down

*NOTE* 
002 as seen in sections 0:49-0:57, 1:55-2:02 and 2:02-2:10 are 

actually 3 notes played quickly after eachother, same with 23 in the 

same sections. So 23 is not on the 23rd fret simply the f and f# 

played quickly after the first. I did this cuase it would have messed 

up my grand staff timing if i had seperated them. The rythem cords 

below the lead are played on the notes they are below just like a 

regular grand staff.

* = Two guitars playing same notes
B = Bend

0:00-0:07
Lead
|--------------12-11---------------14-12|
|----9----12-9-----------9----12-9------|
|-11---11-------------11---11-----------|
|---------------------------------------|
|---------------------------------------|
|---------------------------------------|

rythem
|---------------------------------------|
|---------------------------------------|
|---------------------------------------|
|---------------------------------------|
|-11---------7--------11---------7------|
|-9----------5---------9---------5------|

0:08-0:15
Lead
|--------------12-11------------|
|----9----12-9--------------9---|
|-11---11-------------8--11-----|
|-----------------------------11|
|-------------------------------|
|-------------------------------|

Rythem
|-------------------------------|
|-------------------------------|
|-------------------------------|
|-------------------------------|
|-11---------7---------5--------|
|-9----------5---------3--------|

0:16-0:24
Rythem x16
|---|
|---|
|---|
|---|
|-6-|
|-4-|

0:25-0:30
lead Killswitch
|--------------------------------------------------------------|
|--------------------------------------------------------------|
|--------------------------------------------------------------|
|-6-66---6-6----------------------7-77---7-7-------------------|
|-----4-4---4-444---------------------4-4---4-444--------------|
|--------------------------------------------------------------|

Rythem
|--------------------------------------------------------------|
|--------------------------------------------------------------|
|--------------------------------------------------------------|
|--------------------------------------------------------------|
|-6---6---6---6---6---6---6---6---6---6---6---6---6---6---6---6|
|-4---4---4---4---4---4---4---4---4---4---4---4---4---4---4---4|

0:31-0:40
Lead Killswitch
|--------------------------------------------------------------|
|--------------------------------------------------------------|
|--------------------------------------------------------------|
|-4-44---4-4----------------------2-22---2-2-------------------|
|-----2-2---2-222---------------------0-0---0-000--------------|
|--------------------------------------------------------------|

Rythem
|--------------------------------------------------------------|
|--------------------------------------------------------------|
|--------------------------------------------------------------|
|--------------------------------------------------------------|
|-6---6---6---6---6---6---6---6---6---6---6---6---6---6---6---6|
|-4---4---4---4---4---4---4---4---4---4---4---4---4---4---4---4|

0:41-0:48
Lead Killswitch
  * *** ** ** ***                 * *** ** ** ***
|--------------------------------------------------------------|
|--------------------------------------------------------------|
|--------------------------------------------------------------|
|-6-66---6-6----------------------7-77---7-7-------------------|
|-----4-4---4-444---------------------4-4---4-444--------------|
|--------------------------------------------------------------|

Rythem
|--------------------------------------------------------------|
|--------------------------------------------------------------|
|--------------------------------------------------------------|
|--------------------------------------------------------------|
|-6---6---6---6---6---6---6---6---6---6---6---6---6---6---6---6|
|-4---4---4---4---4---4---4---4---4---4---4---4---4---4---4---4|

0:49-0:57
Lead
Killswitch
  * *** ** ** ***                 * *** ** ** *** 
|--------------------------------------------------------------|
|--------------------------------------------------------------|
|--------------------------------------------------------------|
|-4-44---4-4----------------------2-22---2-2-------------------|
|-----2-2---2-222-----------0---------0-0---0-000---------0----|
|-----------------0-002-23-3-3-2----------------0-002-23-3-3-2-|


Rythem
|--------------------------------------------------------------|
|--------------------------------------------------------------|
|--------------------------------------------------------------|
|--------------------------------------------------------------|
|-6---6---6---6---6---6---6---6---6---6---6---6---6---6---6---6|
|-4---4---4---4---4---4---4---4---4---4---4---4---4---4---4---4|

0:57-1:01
Rythem x 8
|---|
|---|
|---|
|---|
|-6-|
|-4-|

1:01-1:09
Lead
B
|-----------------------------------------------------------|
|-9--------9-12-12-10-9--10-----9--------9-12-10-9----9-----|
|---8-9-10------------------9-----8-9-10-----------11-------|
|-------------------------------------------------------9---|
|-----------------------------------------------------------|
|-----------------------------------------------------------|

Rythem
|-----------------------------------------------------------|
|-----------------------------------------------------------|
|-----------------------------------------------------------|
|-----------------------------------------------------------|
|-11------------------7---------11---------------9----------|
|-9-------------------5---------9----------------7----------|

1:10-1:17
Lead
B
|------------------------------------------------------|
|-9--------9-12-12-10-9--10----------------------------|
|---8-9-10------------------9--------------------------|
|------------------------------8-8--9-----8-8--9-------|
|-------------------------------------9----------11----|
|------------------------------------------------------|

Rythem
|------------------------------------------------------|
|------------------------------------------------------|
|------------------------------------------------------|
|------------------------------------------------------|
|-11------------------7---------9----------7-----------|
|-9-------------------5---------7----------5-----------|

1:18-1:25
Lead
B
|-----------------------------------------------------------|
|-9--------9-12-12-10-9--10-----9--------9-12-10-9----9-----|
|---8-9-10------------------9-----8-9-10-----------11-------|
|-------------------------------------------------------9---|
|-----------------------------------------------------------|
|-----------------------------------------------------------|

Rythem
|-----------------------------------------------------------|
|-----------------------------------------------------------|
|-----------------------------------------------------------|
|-----------------------------------------------------------|
|-11------------------7---------11---------------9----------|
|-9-------------------5---------9----------------7----------|

1:26-1:34
Lead
B
|------------------------------------------------------|
|-9--------9-12-12-10-9--10----------------------------|
|---8-9-10------------------9--------------------------|
|------------------------------8-8--9-----8-8--9-------|
|-------------------------------------9----------11----|
|------------------------------------------------------|

Rythem
|------------------------------------------------------|
|------------------------------------------------------|
|------------------------------------------------------|
|------------------------------------------------------|
|-11------------------7---------9----------7-----------|
|-9-------------------5---------7----------5-----------|

1:34-1:38
Rythem x 8
|---|
|---|
|---|
|---|
|-6-|
|-4-|

1:38-1:46
lead killswitch
|--------------------------------------------------------------|
|--------------------------------------------------------------|
|--------------------------------------------------------------|
|-6-66---6-6----------------------7-77---7-7-------------------|
|-----4-4---4-444---------------------4-4---4-444--------------|
|--------------------------------------------------------------|

Rythem
|--------------------------------------------------------------|
|--------------------------------------------------------------|
|--------------------------------------------------------------|
|--------------------------------------------------------------|
|-6---6---6---6---6---6---6---6---6---6---6---6---6---6---6---6|
|-4---4---4---4---4---4---4---4---4---4---4---4---4---4---4---4|

1:47-1:54
Lead Killswitch
|--------------------------------------------------------------|
|--------------------------------------------------------------|
|--------------------------------------------------------------|
|-4-44---4-4----------------------2-22---2-2-------------------|
|-----2-2---2-222---------------------0-0---0-000--------------|
|--------------------------------------------------------------|

Rythem
|--------------------------------------------------------------|
|--------------------------------------------------------------|
|--------------------------------------------------------------|
|--------------------------------------------------------------|
|-6---6---6---6---6---6---6---6---6---6---6---6---6---6---6---6|
|-4---4---4---4---4---4---4---4---4---4---4---4---4---4---4---4|

1:55-2:02
Lead Killswitch
  * *** ** ** ***                 * *** ** ** ***
|-----------------------------------------------------------------|
|-----------------------------------------------------------------|
|-----------------------------------------------------------------|
|-6-66---6-6----------------------7-77---7-7----------------------|
|-----4-4---4-444-----------0---------4-4---4-444-----------0-----|
|-----------------0-002-23-3-3-2------------------0-002-23-3-3-2--|

Rythem
|--------------------------------------------------------------|
|--------------------------------------------------------------|
|--------------------------------------------------------------|
|--------------------------------------------------------------|
|-6---6---6---6---6---6---6---6---6---6---6---6---6---6---6---6|
|-4---4---4---4---4---4---4---4---4---4---4---4---4---4---4---4|

2:02-2:10
Lead Killswitch
  * *** ** ** ***                 * *** ** ** *** 
|--------------------------------------------------------------|
|--------------------------------------------------------------|
|--------------------------------------------------------------|
|-4-44---4-4----------------------2-22---2-2-------------------|
|-----2-2---2-222-----------0---------0-0---0-000---------0----|
|-----------------0-002-23-3-3-2----------------0-002-23-3-3-2-|


Rythem
|--------------------------------------------------------------|
|--------------------------------------------------------------|
|--------------------------------------------------------------|
|--------------------------------------------------------------|
|-6---6---6---6---6---6---6---6---6---6---6---6---6---6---6---6|
|-4---4---4---4---4---4---4---4---4---4---4---4---4---4---4---4|

2:03-2:19
Lead
B
|-----------------------------------------------------------|
|-9--------9-12-12-10-9--10-----9--------9-12-10-9----9-----|
|---8-9-10------------------9-----8-9-10-----------11-------|
|-------------------------------------------------------9---|
|-----------------------------------------------------------|
|-----------------------------------------------------------|

Rythem
|-----------------------------------------------------------|
|-----------------------------------------------------------|
|-----------------------------------------------------------|
|-----------------------------------------------------------|
|-11------------------7---------11---------------9----------|
|-9-------------------5---------9----------------7----------|

2:19-2:27
Lead
B
|------------------------------------------------------|
|-9--------9-12-12-10-9--10----------------------------|
|---8-9-10------------------9--------------------------|
|------------------------------8-8--9-----8-8--9-------|
|-------------------------------------9----------11----|
|------------------------------------------------------|

Rythem
|------------------------------------------------------|
|------------------------------------------------------|
|------------------------------------------------------|
|------------------------------------------------------|
|-11------------------7---------9----------7-----------|
|-9-------------------5---------7----------5-----------|

2:28-2:35
Lead
  * * * *  * B* *  *  *  *  *   * * * *  * *  *  * *  * * 
|-----------------------------------------------------------|
|-9--------9-12-12-10-9--10-----9--------9-12-10-9----9-----|
|---8-9-10------------------9-----8-9-10-----------11-------|
|-------------------------------------------------------9---|
|-----------------------------------------------------------|
|-----------------------------------------------------------|

Rythem
|-----------------------------------------------------------|
|-----------------------------------------------------------|
|-----------------------------------------------------------|
|-----------------------------------------------------------|
|-11------------------7---------11---------------9----------|
|-9-------------------5---------9----------------7----------|

2:36-2:43
Lead
  * * * *  * B* *  *  *  *  *  * * * *    * *  * *
|------------------------------------------------------|
|-9--------9-12-12-10-9--10----------------------------|
|---8-9-10------------------9--------------------------|
|------------------------------8-8--9-----8-8--9-------|
|-------------------------------------9----------11----|
|------------------------------------------------------|

Rythem
|------------------------------------------------------|
|------------------------------------------------------|
|------------------------------------------------------|
|------------------------------------------------------|
|-11------------------7---------9----------7-----------|
|-9-------------------5---------7----------5-----------|

2:44-3:16
Lead x3
|----------------------------------------------------------------|
|----------------------------------------------------------------|
|----------------------------------------------------------------|
|----------------------------------------------------------------|
|---------5-5-5-5---------4-4-4-4---------5-5-5-5---------7-7-7-7|
|-2-2-2-2---------2-2-2-2---------2-2-2-2---------1-1-1-1--------|

3:17-3:23
Lead
|---|
|---|
|---|
|---|
|---|
|-2-|
comments
We did not receive enough feedback on this tab! Please rate:
print report bad tab
1 2 3 4 5
I want to post or [tab]
guest
You may want to rate the tab now too:
select rating
Please do not post tabs as comments. Select "correction" instead!