Oops, an error
Loading. Please wait.

Welcome To Buckethead Land Tab

ver5
ver5

Whole song

Interactive

More versions @911Tabs.com
56,047 views 39 this week
26 commentsread comments
1 2 3 4 5
excellent!
x 23
add to favorites launch autoscroll
font size
0
reset
Autoscroll
+/-
esc
set tempo
stop
Contributor
Difficulty
intermediate
WARNING: You are trying to view
                                    content from Ultimate-Guitar.com
                                    in an unauthorized application,
                                    which is prohibited.

                                    Please use an official Ultimate
                                    Guitar Tabs application for iPhone,
                                    iPad or Android to access legitimate
                                    chords, guitar, bass, and drum tabs
                                    from Ultimate-Guitar.com database.

                                    Type "ultimate guitar tabs" in Apple
                                    App Store's or Android Market's
                                    search to find the application.

 Intro
  Q=145
          E5                                              G5
 4/4
  Gtr I
                  PM--------------------------------|
  H    Q  Q       S S S S S S S S S S S S S S S S   E E E H    +E
|-------------||----------------------------------|------------------||
|-------------||o---------------------------------|-----------------o||
|-------------||----------------------------------|------------------||
|---------9\--||----------5-2-5-2-4-2-4-2---------|-------5----(5)---||repeat 4 times
|---------7\--||o-5-2-5-2-----------------5-2-5-2-|-0-4-5-5----(5)--o||
|-------------||----------------------------------|-------3----(3)---||

  PM|   PM  PM~            PM|   PM|
  E E E E E E Q    E E E E S S E S S E
|----------------|---------------------|
|----------------|---------------------|
|----------------|---------------------|
|----------------|-------------7-----5-|
|-----4---5---4--|-5-5-4-5-------------|
|-2-2---2---2----|-3-3-----3-3---3-3---|


                   G5G5
              ~
                           |----------6----------|
  E E E E E E Q    E E E E S S S S S S S S S S S S
|----------------|---------------------------------|
|----------------|---------------------------------|
|----------------|---------7-6-4-------------------|
|----------------|---------------7-5-4-------------|
|-----4---5---4--|-5-5-----------------7-5-4-------|
|-2-2---2---2----|-3-3-----------------------7-5-3-|


                   G5G5                                   G5
  PM|   PM  PM~            PM|   PM|     PM|   PM  PM~
  E E E E E E Q    E E E E S S E S S E   E E E E E E Q    E H    Q  E
|----------------|---------------------|----------------|--------------|
|----------------|---------------------|----------------|--------------|
|----------------|---------------------|----------------|--------------|
|----------------|-------------7-----5-|----------------|--------------|
|-----4---5---4--|-5-5-4-5-------------|-----4---5---4--|-5------------|
|-2-2---2---2----|-3-3-----3-3---3-3---|-2-2---2---2----|-3------------|


   Chorus
    F#5  E5F#5   G5    G5 F#5            F#5  E5F#5  G5    G5 F#5
                          ~~~~~~                              ~~~~~~
    E Q  E E E E E   E Q  E +Q   +E  E   E Q  E E Q  E   E Q  E +Q   +E  E
||-----------------|-------------------|---------------|--------------------||
||o----------------|-------------------|---------------|-------------------o||
||-----------------|-------------------|---------------|--------------------||
||-----------------|-------------------|---------------|--------------------||
||o-4----2-4-----5-|---5--4-(4)--(4)---|-4----2-4----5-|---5--4-(4)--(4)---o||
||--2----0-2-----3-|---3--2-(2)--(2)---|-2----0-2----3-|---3--2-(2)--(2)----||


                                            G5
    PM----------------------------|
    S S S S S S S S S S S S S S S S   E E E H    +E   4x
||----------------------------------|-----------------||
||o---------------------------------|----------------o||
||----------------------------------|-----------------||
||----------5-2-5-2-4-2-4-2---------|-------5----(5)--||
||o-5-2-5-2-----------------5-2-5-2-|-0-4-5-5----(5)-o||
||----------------------------------|-------3----(3)--||


 Verse
                   G5G5
              ~
  E E E E E E Q    E E E E S S E S S E
|----------------|---------------------|
|----------------|---------------------|
|----------------|---------------------|
|----------------|-------------7-----5-|
|-----4---5---4--|-5-5-4-5-------------|
|-2-2---2---2----|-3-3-----3-3---3-3---|


                   G5G5
              ~
                           |----------6----------|
  E E E E E E Q    E E E E S S S S S S S S S S S S
|----------------|----------------------------------|
|----------------|----------------------------------|
|----------------|---------7-6-4--------------------|
|----------------|---------------7-5-4--------------|
|-----4---5---4--|-5-5-----------------7-5-4--------|
|-2-2---2---2----|-3-3-----------------------7-5-3--|


                   G5G5                                   G5
              ~                                      ~
  E E E E E E Q    E E E E S S E S S E   E E E E E E Q    E H    Q  E
|----------------|---------------------|----------------|--------------|
|----------------|---------------------|----------------|--------------|
|----------------|---------------------|----------------|--------------|
|----------------|-------------7-----5-|----------------|--------------|
|-----4---5---4--|-5-5-4-5-------------|-----4---5---4--|-5------------|
|-2-2---2---2----|-3-3-----3-3---3-3---|-2-2---2---2----|-3------------|


   Chorus
    F#5  E5F#5   G5    G5 F#5            F#5  E5F#5   G5    G5 F#5
                          ~~~~~~                               ~~~~~~
    E Q  E E E E E   E Q  E +Q   +E  E   E Q  E E E E E   E Q  E +Q   +E  E
||-----------------|-------------------|----------------|--------------------||
||o----------------|-------------------|----------------|-------------------o||
||-----------------|-------------------|----------------|--------------------||
||-----------------|-------------------|----------------|--------------------||
||o-4----2-4-----5-|---5--4-(4)--(4)---|-4----2-4-----5-|---5--4-(4)--(4)---o||
||--2----0-2-----3-|---3--2-(2)--(2)---|-2----0-2-----3-|---3--2-(2)--(2)----||


   Bridge
    B5                B5                 B5
     E     S  S  E     Q          +E      Q
||---------------------------------------------------|
||o--------------------------------------------------|
||---4-----x--x--x-----4----------(4)-----4----------|
||---4-----x--x--x-----4----------(4)-----4----------|
||o--2-----x--x--x-----2----------(2)-----2----------|
||---------------------------------------------------|
|
|   Gtr II
|    S  S  S  S  S  S  S  S  S  S  S   S  S  S  S  S
||------------------------------------------------------|
||o-/12-12-12-12-12-12-12-12-12-12-12--12-12-12-12-12---|
||------------------------------------------------------|
||------------------------------------------------------|
||o-----------------------------------------------------|
||------------------------------------------------------|


  A5                 A5                 A5
    E     S  S  E     Q          +E      Q
|---------------------------------------------------|
|---------------------------------------------------|
|---2-----x--x--x-----2----------(2)-----2----------|
|---2-----x--x--x-----2----------(2)-----2----------|
|---0-----x--x--x-----0----------(0)-----0----------|
|---------------------------------------------------|
|
|   S  S  S  S  S  S  S  S  S  S  S   S  S  S  S  S
|---------------------------------------------------|
|-/14-14-14-14-14-14-14-14-14-14-14--14-14-14-14-14-|
|---------------------------------------------------|
|---------------------------------------------------|
|---------------------------------------------------|
|---------------------------------------------------|


  G5                 G5                 G5
    E     S  S  E     Q          +E      Q
|---------------------------------------------------|
|---------------------------------------------------|
|---------------------------------------------------|
|---5-----x--x--x-----5----------(5)-----5----------|
|---5-----x--x--x-----5----------(5)-----5----------|
|---3-----x--x--x-----3----------(3)-----3----------|
|
|   S  S  S  S  S  S  S  S  S  S  S   S  S  S  S  S
|---------------------------------------------------|
|-/15-15-15-15-15-15-15-15-15-15-15--15-15-15-15-15-|
|---------------------------------------------------|
|---------------------------------------------------|
|---------------------------------------------------|
|---------------------------------------------------|


  G5                 G5           A5    A5
    E     S  S  E      Q           E      Q
|-----------------------------------------------------||
|----------------------------------------------------o||
|----------------------------------2------2-----------||
|---5-----x--x--x------5-----------2------2-----------||
|---5-----x--x--x------5-----------0------0----------o||
|---3-----x--x--x------3------------------------------||
|
|   S  S  S  S  S  S   S  S  S  S  S  S   S  S  S  S
|-/15-15-15-15-15-15-/14-14-14-14-14-14-/12-12-12-12--||
|----------------------------------------------------o||
|-----------------------------------------------------||
|-----------------------------------------------------||
|----------------------------------------------------o||
|-----------------------------------------------------||


   Chorus
    F#5  E5F#5   G5    G5 F#5            F#5  E5F#5   G5    G5 F#5
                          ~~~~~~                               ~~~~~~
    E Q  E E E E E   E Q  E +Q   +E  E   E Q  E E E E E   E Q  E +Q   +E  E
||-----------------|-------------------|----------------|--------------------||
||o----------------|-------------------|----------------|-------------------o||
||-----------------|-------------------|----------------|--------------------||
||-----------------|-------------------|----------------|--------------------||
||o-4----2-4-----5-|---5--4-(4)--(4)---|-4----2-4-----5-|---5--4-(4)--(4)---o||
||--2----0-2-----3-|---3--2-(2)--(2)---|-2----0-2-----3-|---3--2-(2)--(2)----||


                                            G5
    PM--------------------------------|
    S S S S S S S S S S S S S S S S   E E E H    +E   4x
||----------------------------------|-----------------||
||o---------------------------------|----------------o||
||----------------------------------|-----------------||
||----------5-2-5-2-4-2-4-2---------|-------5----(5)--||
||o-5-2-5-2-----------------5-2-5-2-|-0-4-5-5----(5)-o||
||----------------------------------|-------3----(3)--||


 Verse
                   G5G5
              ~
  E E E E E E Q    E E E E S S E S S E
|----------------|---------------------|
|----------------|---------------------|
|----------------|---------------------|
|----------------|-------------7-----5-|
|-----4---5---4--|-5-5-4-5-------------|
|-2-2---2---2----|-3-3-----3-3---3-3---|


                   G5G5
              ~
                           |----------6----------|
  E E E E E E Q    E E E E S S S S S S S S S S S S
|----------------|----------------------------------|
|----------------|----------------------------------|
|----------------|---------7-6-4--------------------|
|----------------|---------------7-5-4--------------|
|-----4---5---4--|-5-5-----------------7-5-4--------|
|-2-2---2---2----|-3-3-----------------------7-5-3--|


                   G5G5                                   G5
              ~                                      ~
  E E E E E E Q    E E E E S S E S S E   E E E E E E Q    E H    Q  E
|----------------|---------------------|----------------|--------------|
|----------------|---------------------|----------------|--------------|
|----------------|---------------------|----------------|--------------|
|----------------|-------------7-----5-|----------------|--------------|
|-----4---5---4--|-5-5-4-5-------------|-----4---5---4--|-5------------|
|-2-2---2---2----|-3-3-----3-3---3-3---|-2-2---2---2----|-3------------|


   Bridge
    B5                B5                 B5
     E     S  S  E     Q          +E      Q
||---------------------------------------------------|
||o--------------------------------------------------|
||---4-----x--x--x-----4----------(4)-----4----------|
||---4-----x--x--x-----4----------(4)-----4----------|
||o--2-----x--x--x-----2----------(2)-----2----------|
||---------------------------------------------------|
|
|   Gtr II
|    S  S  S  S  S  S  S  S  S  S  S   S  S  S  S  S
||------------------------------------------------------|
||o-/12-12-12-12-12-12-12-12-12-12-12--12-12-12-12-12---|
||------------------------------------------------------|
||------------------------------------------------------|
||o-----------------------------------------------------|
||------------------------------------------------------|


  A5                 A5                 A5
    E     S  S  E     Q          +E      Q
|---------------------------------------------------|
|---------------------------------------------------|
|---2-----x--x--x-----2----------(2)-----2----------|
|---2-----x--x--x-----2----------(2)-----2----------|
|---0-----x--x--x-----0----------(0)-----0----------|
|---------------------------------------------------|
|
|   S  S  S  S  S  S  S  S  S  S  S   S  S  S  S  S
|---------------------------------------------------|
|-/14-14-14-14-14-14-14-14-14-14-14--14-14-14-14-14-|
|---------------------------------------------------|
|---------------------------------------------------|
|---------------------------------------------------|
|---------------------------------------------------|


  G5                 G5                 G5
    E     S  S  E     Q          +E      Q
|---------------------------------------------------|
|---------------------------------------------------|
|---------------------------------------------------|
|---5-----x--x--x-----5----------(5)-----5----------|
|---5-----x--x--x-----5----------(5)-----5----------|
|---3-----x--x--x-----3----------(3)-----3----------|
|
|   S  S  S  S  S  S  S  S  S  S  S   S  S  S  S  S
|---------------------------------------------------|
|-/15-15-15-15-15-15-15-15-15-15-15--15-15-15-15-15-|
|---------------------------------------------------|
|---------------------------------------------------|
|---------------------------------------------------|
|---------------------------------------------------|


  G5                 G5           A5    A5
    E     S  S  E      Q           E      Q
|-----------------------------------------------------||
|----------------------------------------------------o||
|----------------------------------2------2-----------||
|---5-----x--x--x------5-----------2------2-----------||
|---5-----x--x--x------5-----------0------0----------o||
|---3-----x--x--x------3------------------------------||
|
|   S  S  S  S  S  S   S  S  S  S  S  S   S  S  S  S
|-/15-15-15-15-15-15-/14-14-14-14-14-14-/12-12-12-12--||
|----------------------------------------------------o||
|-----------------------------------------------------||
|-----------------------------------------------------||
|----------------------------------------------------o||
|-----------------------------------------------------||


 Outro Solo
  B5                 B5      B5       A5                 A5             A5
   E      S  S  E     Q  +E  Q         E      S  S  E     Q         +E  Q
|-----------------------------------|----------------------------------------|
|-----------------------------------|----------------------------------------|
|--4------x--x--x-----4--(4)-4------|--2------x--x--x-----2---------(2)-2----|
|--4------x--x--x-----4--(4)-4------|--2------x--x--x-----2---------(2)-2----|
|--2------x--x--x-----2--(2)-2------|--0------x--x--x-----0---------(0)-0----|
|-----------------------------------|----------------------------------------|
|
|                     ~~~~~~~~~~~~~~                                 ~~~~~~~~
|  E     +E     S  S  H         +E     E     +E     S  S  E  +S   S  Q     E
|-----------------------------------|----------------------------------------|
|-19----(19)------------------------|-19----(19)-----------------------------|
|-18b19-(18)---16-14-16--------(16)-|-18b19-(18)---16-14-16-(16)-14----------|
|-----------------------------------|-------------------------------14-------|
|-----------------------------------|-------------------------------------17-|
|-----------------------------------|----------------------------------------|


  G5                 G5      G5         G5                        G5            A5A5
   E      S  S  E     Q  +E  Q            E    S       S E        Q             E Q
|-------------------------------------|---------------------------------------------------------|
|-------------------------------------|---------------------------------------------------------|
|-------------------------------------|-----------------------------------------2-2-------------|
|--5------x--x--x-----5--(5)-5--------|---5----x-------x-x--------5-------------2-2-------------|
|--5------x--x--x-----5--(5)-5--------|---5----x-------x-x--------5-------------0-0-------------|
|--3------x--x--x-----3--(3)-3--------|---3----x-------x-x--------3-----------------------------|
|
|                     ~~~~~~~~~~~~~~~~                                        ~~
|  E     +E     S  S  H          E       +E   +T    E       E        S  E     Q      +E   +T
|-------------------------------------|------------17-------------------------------------------|
|-19----(19)--------------------17b19-|-(17)-(17)-(17)-----17pb19r==15-17b19-15-----(15)-(15)---|
|-18b19-(18)---16-14-16--------(16)---|---------------------------------------------------------|
|-------------------------------------|---------------------------------------------------------|
|-------------------------------------|---------------------------------------------------------|
|-------------------------------------|---------------------------------------------------------|


  B5                 B5      B5       A5                 A5             A5
   E      S  S  E     Q  +E  Q         E      S  S  E     Q         +E  Q
|-----------------------------------|----------------------------------------|
|-----------------------------------|----------------------------------------|
|--4------x--x--x-----4--(4)-4------|--2------x--x--x-----2---------(2)-2----|
|--4------x--x--x-----4--(4)-4------|--2------x--x--x-----2---------(2)-2----|
|--2------x--x--x-----2--(2)-2------|--0------x--x--x-----0---------(0)-0----|
|-----------------------------------|----------------------------------------|
|
|                     ~~~~~~~~~~~~~~                                 ~~~~~~~~
|  E     +E     S  S  H         +E     E     +E     S  S  E  +S   S  Q     E
|-----------------------------------|----------------------------------------|
|-19----(19)------------------------|-19----(19)-----------------------------|
|-18b19-(18)---16-14-16--------(16)-|-18b19-(18)---16-14-16-(16)-14----------|
|-----------------------------------|-------------------------------14-------|
|-----------------------------------|-------------------------------------17-|
|-----------------------------------|----------------------------------------|


  G5                 G5      G5       G5                  G5                A5   A5
   E      S  S  E     Q  +E  Q         E     S S  E        Q                  E  Q
|-----------------------------------|---------------------------------------------------|
|-----------------------------------|---------------------------------------------------|
|-----------------------------------|-----------------------------------------2--2------|
|--5------x--x--x-----5--(5)-5------|--5-----x-x--x--------5------------------2--2------|
|--5------x--x--x-----5--(5)-5------|--5-----x-x--x--------5------------------0--0------|
|--3------x--x--x-----3--(3)-3------|--3-----x-x--x--------3----------------------------|
|
|                     ~~~~~~~~~~~~~~                       ~~~~~~~~~~~~~~~~~~~~~~~~~~~~~
|  E     +E     S  S  H         +E     E     E    S     S  S     S  S     S   Q     +E
|-----------------------------------|-------17---------17-------17-------17-(17)---(17)-|
|-19----(19)------------------------|-17b19------17b19----17b19----17b19-----17----(17)-|
|-18b19-(18)---16-14-16--------(16)-|---------------------------------------------------|
|-----------------------------------|---------------------------------------------------|
|-----------------------------------|---------------------------------------------------|
|-----------------------------------|---------------------------------------------------|


  G#5                     G#5               G#5       F#5                     F#5               F#5
   E    S       S E       Q       +E        Q          E    S       S E       Q       +E        Q
|---------------------------------------------------|---------------------------------------------------|
|---------------------------------------------------|---------------------------------------------------|
|---------------------------------------------------|---------------------------------------------------|
|--6----x-------x-x-------6-------(6)-------6-------|--4----x-------x-x-------4-------(4)-------4-------|
|--6----x-------x-x-------6-------(6)-------6-------|--4----x-------x-x-------4-------(4)-------4-------|
|--4----x-------x-x-------4-------(4)-------4-------|--2----x-------x-x-------2-------(2)-------2-------|
|
|  ~~~~~~~~~~~~~~~~~~~~~~~~~~~~~~~~~~~~~~~~~~~~~~~~~~~~~~~~~~~~~~~~~~~~~~~~~~~~~~~~~~~~~~~~~~~~~~~~~~~~~~
|  |---------------------6---------------------|       |---------------------6---------------------|
|  Q       Q         Q       Q         Q       Q       Q       Q         Q       Q         Q       Q
|-15b16---15b16-----15b16---15b16-----15b16---15b16-|-15b16---15b16-----15b16---15b16-----15b16---15b16-|
|---------------------------------------------------|---------------------------------------------------|
|---------------------------------------------------|---------------------------------------------------|
|---------------------------------------------------|---------------------------------------------------|
|---------------------------------------------------|---------------------------------------------------|
|---------------------------------------------------|---------------------------------------------------|


  E5                      E5                E5        F#5                     F#5               F#5
   E    S       S E       Q       +E        Q          E    S       S E       Q       +E        Q
|---------------------------------------------------|----------------------------------------------------|
|---------------------------------------------------|----------------------------------------------------|
|---------------------------------------------------|----------------------------------------------------|
|--2----x-------x-x-------2-------(2)-------2-------|--4----x-------x-x-------4-------(4)-------4--------|
|--2----x-------x-x-------2-------(2)-------2-------|--4----x-------x-x-------4-------(4)-------4--------|
|--0----x-------x-x-------0-------(0)-------0-------|--2----x-------x-x-------2-------(2)-------2--------|
|
|~~~~~~~~~~~~~~~~~~~~~~~~~~~~~~~~~~~~~~~~~~~~~~~~~~~~~~~~~~~~~~~~~~~~~~~~~~~~~~~~~~~~~~~~~~~~~~~~~~~~~
|  |---------------------6---------------------|       |---------------------6---------------------|
|  Q       Q         Q       Q         Q       Q       Q       Q         Q       Q         Q       Q
|-15b16---15b16-----15b16---15b16-----15b16---15b16-|-15b16---15b16-----15b16---15b16-----15b16---15\----|
|---------------------------------------------------|----------------------------------------------------|
|---------------------------------------------------|----------------------------------------------------|
|---------------------------------------------------|----------------------------------------------------|
|---------------------------------------------------|----------------------------------------------------|
|---------------------------------------------------|----------------------------------------------------|


  G#5                          G#5                         G#5
   E        S    S     E        Q                +E         Q
|----------------------------------------------------------------------------|
|----------------------------------------------------------------------------|
|----------------------------------------------------------------------------|
|--6--------x----x-----x--------6----------------(6)--------6----------------|
|--6--------x----x-----x--------6----------------(6)--------6----------------|
|--4--------x----x-----x--------4----------------(4)--------4----------------|
|
|  |-----------------------------------3-----------------------------------|
|  S  S  S  S  S    S  S  S  S  S  S  S  S  S  S  S   S  S  S  S  S  S  S  S
|-16-18-16----16---19-18-19-18-16-------16-18-16-----16-19-18-19-18-16-------|
|----------19---------------------19-16----------19--------------------19-16-|
|----------------------------------------------------------------------------|
|----------------------------------------------------------------------------|
|----------------------------------------------------------------------------|
|----------------------------------------------------------------------------|


  F#5                          F#5                         F#5
   E        S    S     E        Q                +E         Q
|-------------------------------------------------------------------------------|
|-------------------------------------------------------------------------------|
|-------------------------------------------------------------------------------|
|--4--------x----x-----x--------4----------------(4)--------4-------------------|
|--4--------x----x-----x--------4----------------(4)--------4-------------------|
|--2--------x----x-----x--------2----------------(2)--------2-------------------|
|
|  |-----------------------------------3-----------------------------------|
|  S  S  S  S  S    S  S  S  S  S  S  S  S  S  S  S   S  S  S  S  S  S  S  S
|-16-18-16----16---19-18-19-18-16-------16-18-16-----16-19-18-19-18-16----------|
|----------19---------------------19-16----------19--------------------19-16----|
|-------------------------------------------------------------------------------|
|-------------------------------------------------------------------------------|
|-------------------------------------------------------------------------------|
|-------------------------------------------------------------------------------|


  E5                           E5                          E5
   E        S    S     E        Q                +E         Q
|----------------------------------------------------------------------------|
|----------------------------------------------------------------------------|
|----------------------------------------------------------------------------|
|--2--------x----x-----x--------2----------------(2)--------2----------------|
|--2--------x----x-----x--------2----------------(2)--------2----------------|
|--0--------x----x-----x--------0----------------(0)--------0----------------|
|
|  |-----------------------------------3-----------------------------------|
|  S  S  S  S  S    S  S  S  S  S  S  S  S  S  S  S   S  S  S  S  S  S  S  S
|-16-18-16----16---19-18-19-18-16-------16-18-16-----16-19-18-19-18-16-------|
|----------19---------------------19-16----------19--------------------19-16-|
|----------------------------------------------------------------------------|
|----------------------------------------------------------------------------|
|----------------------------------------------------------------------------|
|----------------------------------------------------------------------------|


  F#5                          F#5                         F#5
   E        S    S     E        Q                +E         Q
|-------------------------------------------------------------------------------|
|-------------------------------------------------------------------------------|
|-------------------------------------------------------------------------------|
|--4--------x----x-----x--------4----------------(4)--------4-------------------|
|--4--------x----x-----x--------4----------------(4)--------4-------------------|
|--2--------x----x-----x--------2----------------(2)--------2-------------------|
|
|  |-----------------------------------3-----------------------------------|
|  S  S  S  S  S    S  S  S  S  S  S  S  S  S  S  S   S  S  S  S  S  S  S  S
|-16-18-16----16---19-18-19-18-16-------16-18-16-----16-19-18-19-18-16----------|
|----------19---------------------19-16----------19--------------------19-16----|
|-------------------------------------------------------------------------------|
|-------------------------------------------------------------------------------|
|-------------------------------------------------------------------------------|
|-------------------------------------------------------------------------------|


  G#5                          G#5                         G#5
   E        S    S     E        Q                +E         Q
|----------------------------------------------------------------------------|
|----------------------------------------------------------------------------|
|----------------------------------------------------------------------------|
|--6--------x----x-----x--------6----------------(6)--------6----------------|
|--6--------x----x-----x--------6----------------(6)--------6----------------|
|--4--------x----x-----x--------4----------------(4)--------4----------------|
|
|  |-------------------------------------------------------------------------3
|  S  S  S  S  S    S  S  S  S  S  S  S  S  S  S  S   S  S  S  S  S  S  S  S
|-21-19-16----16---19-21-19-16----16-19-21-19-16-----16-19-21-19-16----16-19-|
|----------19------------------19----------------19-----------------19-------|
|----------------------------------------------------------------------------|
|----------------------------------------------------------------------------|
|----------------------------------------------------------------------------|
|----------------------------------------------------------------------------|


  F#5                          F#5                         F#5
   E        S    S     E        Q                +E         Q
|-------------------------------------------------------------------------------|
|-------------------------------------------------------------------------------|
|-------------------------------------------------------------------------------|
|--4--------x----x-----x--------4----------------(4)--------4-------------------|
|--4--------x----x-----x--------4----------------(4)--------4-------------------|
|--2--------x----x-----x--------2----------------(2)--------2-------------------|
|
|--------------------------------------------------------------------------|
|  S  S  S  S  S    S  S  S  S  S  S  S  S  S  S  S   S  S  S  S  S  S  S  S
|-21-19-16----16---19-21-19-16----16-19-21-19-16-----16-19-21-19-16----16-19----|
|----------19------------------19----------------19-----------------19----------|
|-------------------------------------------------------------------------------|
|-------------------------------------------------------------------------------|
|-------------------------------------------------------------------------------|
|-------------------------------------------------------------------------------|


  E5                           E5                          E5
   E        S    S     E        Q                +E         Q
|----------------------------------------------------------------------------|
|----------------------------------------------------------------------------|
|----------------------------------------------------------------------------|
|--2--------x----x-----x--------2----------------(2)--------2----------------|
|--2--------x----x-----x--------2----------------(2)--------2----------------|
|--0--------x----x-----x--------0----------------(0)--------0----------------|
|
|  |-----------------------------------3-----------------------------------|
|  S  S  S  S  S    S  S  S  S  S  S  S  S  S  S  S   S  S  S  S  S  S  S  S
|-21-19-16----16---19-21-19-16----16-19-21-19-16-----16-19-21-19-16----16-19-|
|----------19------------------19----------------19-----------------19-------|
|----------------------------------------------------------------------------|
|----------------------------------------------------------------------------|
|----------------------------------------------------------------------------|
|----------------------------------------------------------------------------|


  F#5                          F#5                         F#5
   E        S    S     E        Q                +E         Q
|-------------------------------------------------------------------------|
|-------------------------------------------------------------------------|
|-------------------------------------------------------------------------|
|--4--------x----x-----x--------4----------------(4)--------4-------------|
|--4--------x----x-----x--------4----------------(4)--------4-------------|
|--2--------x----x-----x--------2----------------(2)--------2-------------|
|
|  |---------------------------------3----------------------------------|
|  S  S  S  S  S    S  S  S  S  S  S  S  S  S  S  S   S  S  S  S  S  S  E
|-21-19-16----16---19-21-19-16----16-19-21-19-16-----16-19-21-19-16----16-|
|----------19------------------19----------------19-----------------19----|
|-------------------------------------------------------------------------|
|-------------------------------------------------------------------------|
|-------------------------------------------------------------------------|
|-------------------------------------------------------------------------|


  G#5
   H                H
|----------------------------*|
|----------------------------*|
|----------------------------*|
|--6\------------------------*|
|--6\------------------------*|
|--4\------------------------*|
|
|              ~~~~~~~~~
|  E     S  S  Q   +E   Q  E
|-21b23r21-19----------------*|
|-------------21--(21)\------*|
|----------------------------*|
|----------------------------*|
|----------------------------*|
|----------------------------*|


--------------------------------------------------------------------------------


Duration Legend
---------------
W - whole; H - half; Q - quarter; E - 8th; S - 16th; T - 32nd; X - 64th; a - acciaccatura
+ - note tied to previous; . - note dotted; .. - note double dotted
Uncapitalized letters represent notes that are staccato (1/2 duration)
Irregular groupings are notated above the duration line
Duration letters will always appear directly above the note/fret number it represents the
duration for.  Duration letters with no fret number below them represent rests. Melody 
appear below the staff

Tablature Legend
----------------
 h   - hammer-on
 p   - pull-off
 b   - bend
 pb  - pre-bend
 r   - bend release (if no number after the r, then release immediately)
 /\  - slide into or out of (from/to "nowhere")
 ~   - vibrato
 PM  - palm muting
 =   - hold bend; also acts as connecting device for hammers/pulls

 |  - bar
||  - double bar
||o - repeat start
o|| - repeat end
comments
print report bad tab
26 comments total. Showing first comments.
+1 reply
mini slash wrote on January 31 2006, 10:01 am

omg, you actually tabbed out the end solo! awesome dude!

+2 reply
GordanBlake wrote on July 24 2006, 07:26 pm

Are you sure about this part?

|----------6----------|
E E E E S S S S S S S S S S S S
|---------------------------------|
|---------------------------------|
|---------7-6-4-------------------|
|---------------7-5-4-------------|
|-5-5-----------------7-5-4-------|
|-3-3-----------------------7-5-4-|




For me should be:
|----------6----------|
E E E E S S S S S S S S S S S S
|---------------------------------|
|---------------------------------|
|---------7-6-4-------------------|
|---------------7-5-4-------------|
|-5-5-----------------7-5-4-------|
|-3-3-----------------------7-5-3-|

So you get a descending major scale instead of a descending japanese scale... (BH loves major scales hehe)

Great tab btw

0 reply
buckethead_jr wrote on August 8 2006, 07:20 am

oh yeah so it should be, Thanks!

I want to post or [tab]
guest
You may want to rate the tab now too:
select rating
Please do not post tabs as comments. Select "correction" instead!